Oops, an error
Loading. Please wait.

Four On Six tab

version 1
version 1

Whole song

Interactive

59,401 views 114 this week
8 commentsread comments
1 2 3 4 5
x 18
add to favorites
×
Save as Personal and add changes to this tab that will be seen only by you. Learn more ›
×
You can save this tab as Personal to edit and correct it or add notes. All changes will be seen only by you. Learn more »
launch autoscroll
font size
0
reset
how to read this tab
guitar tuner
edit
Autoscroll
slow
fast
+/-
esc
set tempo
stop
Author
EFOUR ON SIX
As recorded by Wes Montgomery
(From the 1960 Album THE INCREDIBLE JAZZ GUITAR OF WES MONTGOMERY)
Transcribed by Ciro Visconti
Music by Wes Montgomery
Gtr I (E A D G B E) - 'Wes Montgomery'

[Guitar Theme]
  Jazz (with swing feel) Q=207(8=s8)
  Gm7
 4/4
  Gtr I
  Q  Q  Q  Q    Q  Q  Q  Q    Q  Q  Q  Q
e|-------------|-------------|-------------|
B|-------------|-------------|-------------|
G|-------------|-------------|-------------|
D|----------5--|----------5--|----------5--|
A|----5--3-----|----5--3-----|----5--3-----|
e|-3-----------|-3-----------|-3-----------|

                Cm7   F7      Bbm7  Eb7
  Q  Q  Q  Q    Q  Q  Q  Q    Q  Q  Q  Q
e|-------------|-------------|---------------|
B|-------------|-------------|---------------|
G|-------------|----------5--|---------------|
D|----------5--|----5--3-----|----------8----|
A|----5--3-----|-3-----------|----8--6-------|
E|-3-----------|-------------|-6-------------|

  Am7   D7      Ebm7  Ab7     Gm7
  Q  Q  Q  Q    Q  Q  Q  Q    Q  Q  Q  Q
e|-------------|-------------|-------------|
B|-------------|-------------|-------------|
G|-------------|----------8--|-------------|
D|----------7--|----8--6-----|----------5--|
A|----7--5-----|-6-----------|----5--3-----|
E|-5-----------|-------------|-3-----------|

  Q  Q  Q  Q    Q  Q  Q  Q    Q  Q  Q  Q
e|-------------|-------------|--------------|
B|-------------|-------------|--------------|
G|-------------|-------------|--------------|
D|----------5--|----------5--|----------5---|
A|----5--3-----|----5--3-----|----5--3------|
E|-3-----------|-3-----------|-3------------|

  BbmajGm7 G#Am11    D7+9        Gm7
  Q  E E E E Q    Q  Q  +H       Q  Q  Q  Q    Q  Q  Q  E E
e|---------------|--------------|-------------|---------------|
B|-3----3---2-3--|----6--(6)----|-------------|---------------|
G|-2----3---4-5--|----5--(5)----|-------------|----------3-5--|
D|-3----3---4-5--|----4--(4)----|----------5--|---------------|
A|-1-------------|----5--(5)----|----5--3-----|----5--3-------|
E|------3---4-5--|--------------|-3-----------|-3-------------|

  E E E E E E E E    E E E E E E E E   E E E E E E +Q     +H     Q  E E
e|-----------------|------------------|------------------|-----------------|
B|-3-3-------------|-/4-3-----------3-|------------------|-----------------|
G|-------3-5-5---3-|------3-5-----3---|-5-5-----2-2-(2)--|-(2)---------6h==|
D|-----------------|------------5-----|-------5----------|-----------------|
A|-----------------|------------------|------------------|-----------------|
E|-----------------|------------------|------------------|-----------------|

  Cm7    F7       Bbm7   Eb7      Am7    D7
  Q  E E Q  E E   Q  E E Q  E E   Q  E E Q  E  E
e|---------------|---------------|----------------|
B|---------------|---------------|----------------|
G|-7-----------6p|=5-----------5p|=4-----------11p|
D|----8----------|----6----------|----5-----------|
A|------8-6------|------6-4------|------5-3-------|
E|---------------|---------------|----------------|

  Ebm7      Ab7      Gm7
   Q   E  E Q  E E   E E E E E E E E    E E E E E E E E
e|------------------|-----------------|-------------------|
B|------------------|-3-3-------------|-/4-3-----------3--|
G|-10-----------3-5-|-------3-5-5---3-|------3-5-----3----|
D|-----11-----------|-----------------|------------5------|
A|--------11-9------|-----------------|-------------------|
E|------------------|-----------------|-------------------|

                                   BbmajGm7 G#Am11
  E E E E E E +Q     +H.      Q    Q  E E E E Q
e|------------------|-------------|---------------|
B|------------------|-------------|-3----3---2-3--|
G|-5-5-----2-2-(2)--|-(2)---------|-2----3---4-5--|
D|-------5----------|-------------|-3----3---4-5--|
A|------------------|-------------|-1-------------|
E|------------------|-------------|------3---4-5--|

     D7+9        Gm7
  Q  Q  +H       Q  Q  Q  Q    Q  Q  Q  E E
e|--------------|-------------|---------------|
B|----6--(6)----|-------------|---------------|
G|----5--(5)----|-------------|------------3--|
D|----4--(4)----|----------5--|----------5----|
A|----5--(5)----|----5--3-----|----5--3-------|
E|--------------|-3-----------|-3-------------|

  Gm7
  E E Q  H      H    Q  E E   E  Q.   E E Q
e|-------------|-------------|----------------|
B|-------------|-----------3-|----------------|
G|-5-5---------|---------3---|-5--------------|
D|-------------|------5------|---/7----8-5----|
A|-------------|-------------|----------------|
E|-------------|-------------|----------------|

             Cm7    F7        Bbm7   Eb7
  W          Q  E E E E E E   Q  E E E E Q
e|----------|----------------|----------------|
B|----------|--------6-------|----------4-----|
G|----------|------8---7-5---|-3--------------|
D|----------|--------------5-|----3-6-5-------|
A|----------|----------------|----------------|
E|----------|----------------|----------------|

  Am7             D7b9               Gm7
  E S S Q  H      E S S E E E E Q     H    Q  Q
e|---------------|------------------|-------------|
B|---5p4p3-------|---6p5p4----------|-------8-----|
G|---------------|---------6-5-3----|-/7----------|
D|---------------|---------------6--|-------------|
A|---------------|------------------|-------------|
E|---------------|------------------|-------------|

  Q  E   E  +Q.    E   E  E E E E  E Q    H    E E E E
e|--------------------|------------------|------------6----|
B|------/10-(10)------|------------------|--------6-8------|
G|-----------------10-|-7-10-7-----------|-----------------|
D|--------------------|--------8-7-------|-----------------|
A|--------------------|------------10----|-----------------|
E|--------------------|------------------|-----------------|

  Bbmaj7                Am7b5     D7b9      Gm7
    Q  Q  E  S S E  E    E E  E E E E E E   E E  Q  E  E Q
e|-/10-------10p9p8----|-------------------|-----------------|
B|------------------11-|-10-8--------------|-----------------|
G|---------------------|------10-8-----7-8-|-7---------------|
D|---------------------|-------------8-----|---8-------------|
A|---------------------|-------------------|-----10--9-10----|
E|---------------------|-------------------|-----------------|

  Am7b5D7b9       Gm7
                                      |-3-|
  H    E E E E    Q  Q  Q  Q    Q  Q  E E E +Q
e|--------------||-3--3--3--3--|-3--3--3h4h5-(5)----|
B|----------3-6-||-------------|--------------------|
G|--------3-----||-------------|--------------------|
D|------5-------||-------------|--------------------|
A|--------------||-------------|--------------------|
E|--------------||-------------|--------------------|

                                    Cm7     F7
        |-3-|
  Q  Q  E E E +Q     E E E E H      E E E E E E Q
e|-3--3--3h4h5-(5)--|--------------|----------------|
B|------------------|-3------------|-----------6----|
G|------------------|---5-3--------|----------------|
D|------------------|-------5------|-----5-8-7------|
A|------------------|--------------|---6------------|
E|------------------|--------------|----------------|

  Bbm7    Eb7       Am7
  E E E E E E E E   E E E E E E E E
e|-----------4-----|------------------|
B|-------4-6---8-6-|-5----------------|
G|---5-6-----------|---5-7-6-5-7------|
D|-----------------|-------------9----|
A|-----------------|---------------6--|
E|-----------------|------------------|

  D7b9               Gm7
  |-3-|
  E E E E E E E Q    Q.   E E E E E
e|-------------6----|-8----6-----6-5h|
B|-----------7---9--|----------7-----|
G|-----6-5-8--------|----------------|
D|---8--------------|----------------|
A|-9----------------|----------------|
E|------------------|----------------|

  |-3-|
  E E E E E Q  Q    Q  Q  E E Q    Q  E E E E E E
e|-6p5p3-----------|--------------|------------6---|
B|-------5-3-------|--------------|------6---8---9-|
G|-----------3-----|---------6----|----------------|
D|--------------7--|-5-----8------|----------------|
A|-----------------|----5---------|----------------|
E|-----------------|--------------|----------------|

  Bbmaj7             Am7b5     D7b9     Gm7
  +E  E Q  E E E E   +E  E E E E E Q    Q.   E E E Q
e|------------------|------------------|---------------|
B|-(9)-6--------5---|------------------|---------------|
G|----------------8-|-(8)-------8-7----|-5------5------|
D|------------8-----|---------8-----8--|------8---8----|
A|------------------|------------------|---------------|
E|------------------|------------------|---------------|

  Am7b5D7b9       Gm7
  H    Q  E  E     E  E  E  E  Q   E  E
e|--------------||-------10-13-12----------|
B|--------------||----11-----------13-10---|
G|--------------||-12----------------------|
D|-----------12-||-------------------------|
A|--------------||-------------------------|
E|--------------||-------------------------|

   Q  E  E  E  Q   E    Q   E  E  Q   E  E
E|-------------10-----|---------------------|
B|----------11-----12-|-13--10--------------|
G|-------12-----------|--------10-12--------|
D|-12-----------------|---------------14-10-|
A|--------------------|---------------------|
E|--------------------|---------------------|

                          Cm7     F7       Bbm7    Eb7
  E  E  E  E  E  E E  E   E E E E E E Q     Q  E E E E Q
e|-----------------------|----------------|------------------|
B|-----------------------|-----------6-8--|-/9--6------------|
G|-9h10------------------|-------5-8------|-------6-5--------|
D|------12---------------|-5-8p7----------|-----------8------|
A|---------13-12-10------|----------------|-------------8----|
E|--------------------11-|----------------|------------------|

  Am7                D7b9              Gm7
  E E  E E E E E E   E E E E E E E E   E E E E E E E E
e|------------------|-------------6---|-5---------------|
B|------------------|---------7-----9-|---6-------------|
G|------------7-----|---6p5-8---8-----|-----7-----------|
D|--------7-9-------|-8---------------|-------8p7-------|
A|-7-9h10-------8-9-|-----------------|-----------8-5---|
E|------------------|-----------------|---------------6p|

  E E E E E E E E   E E E E E E E E
e|-----------------|-----------5p3-----|
B|-----------------|-------3-6-----6---|
G|-----------------|-----3-------------|
D|---------------3p|=2-5---------------|
A|-----------3-5---|-------------------|
E|-5-2-3-5-6-------|-------------------|

                    Bbmaj7            Am7b5  D7b9
  Q  E E +E  Q  E   E E  E E E E Q    Q  E E E E E E
e|------9-(9)-8--6-|-----------------|----------------|
B|-5---------------|-8-9-------------|----------------|
G|-----------------|-----10-8-7-6----|--------5-------|
D|-----------------|-----------------|------7---8-7---|
A|-----------------|-----------------|--------------8-|
E|-----------------|-----------------|----------------|

  Gm7             Am7b5D7b9     Gm7
                                           |-3-|
  Q  E E E E Q    H    Q  Q     H    +E  E E E E
e|---------------|------------||-8----(8)---------|
B|---------------|---------8--||----------------6-|
G|---------------|------------||-5----(5)-----7---|
D|-5--5-7---7----|---------5--||----------7-8-----|
A|------------5--|------------||------------------|
E|---------------|------------||------------------|

                        |-3-|
  E Q.   Q  Q    Q.   E E E E E E   Q  E E E E Q
e|---8----8-----|-8----------------|------------6--|
B|-5---------8--|------------6-5---|----------8----|
G|--------------|-5--------7-----5-|-5----7-8------|
D|-----------5--|------7-8---------|---------------|
A|--------------|------------------|---------------|
E|--------------|------------------|---------------|

  Cm7     F7       Bbm7     Eb7       Am7
                             |-3--|
  E  Q  E E E Q    E  E E E  Q Q  Q    Q  E E Q  Q
e|-9-10--6--------|--------8-11-8-11-|-10--7----------|
B|---------6------|------9-----------|-------8--------|
G|-----------8----|---10-------------|---------7--5---|
D|----------------|------------------|----------------|
A|----------------|------------------|----------------|
E|----------------|------------------|----------------|

  D7b9              Gm7
  H    E  E  E  E    E  E  E  E  +E   Q   E
e|-----------------|-------10----------------|
B|--------------10-|-11-13----13-(13)-10-----|
G|-----------12----|----------------------10-|
D|--------12-------|-------------------------|
A|-----------------|-------------------------|
E|-----------------|-------------------------|

   |--3--|
   E  E  E  E  E E  E  E  E    E E  E E E E  E E   E  E Q  H
e|---------------------------|--------------------|--------------|
B|---------------------------|----9-10---8------8-|--------------|
G|-12p11p10----10------------|-10------9---9-10---|-9-10---------|
D|----------13------------12-|--------------------|--------------|
A|------------------10-13----|--------------------|--------------|
E|---------------------------|--------------------|--------------|

  Bbmaj7           Am7b5   D7b9      Gm7
  Q  E E E E E E   E E E E E E E E   E E E E E E Q
e|--------6-------|-----------------|----------------|
B|------6---9-6---|-----------------|----------------|
G|--------------9-|-9-6-----7---5---|-----------5----|
D|----------------|-----8-5---8---8-|-7-5------------|
A|----------------|-----------------|-----8-6-7------|
E|----------------|-----------------|----------------|

  Am7b5D7b9       Gm7
  H    E E E E     Q   E  E  +E   Q   E
e|------------6-||-10--10-10-(10)-10--10---|
B|----------8---||-------------------------|
G|--------7-----||-------------------------|
D|--------------||-------------------------|
A|--------------||-------------------------|
E|--------------||-------------------------|

   Q   E  E  +Q    E  E    Q   E  E  Q   E  E   E  E  E E E  E Q
e|-10--13-12-(12)--10----|---------------------|-------------------|
B|--------------------11-|-10--10-13-11--10----|-------------------|
G|-----------------------|------------------12-|------10-8-9-------|
D|-----------------------|---------------------|---12--------10----|
A|-----------------------|---------------------|-------------------|
E|-----------------------|---------------------|-------------------|

  Cm7     F7        Bbm7    Eb7        Am7
  E E E E +Q   Q    E E E E +Q   E E   E Q.   +E  E E E
e|-------7-(7)--7--|-------5-(5)--5---|---4----(4)--------|
B|-----8-----------|-----6------------|-5-----------------|
G|---8-------------|---6------------5-|--------------3-7--|
D|-----------------|------------------|------------4------|
A|-----------------|------------------|-------------------|
E|-----------------|------------------|-------------------|

  D7b9              Gm7
                    |-3-|
  +E  E Q  Q  E E   E E E E E E  Q.
e|-----------------|-----------6-10----|
B|-------3---------|-----6-5-8---------|
G|-(7)-3-----------|---7---------------|
D|---------------5-|-------------------|
A|-----------------|-------------------|
E|-----------------|-------------------|

         |-3-| |-3-|
  Q  E E E E E E E E   Q  E E E E E E   E E E E E E E E
e|-8--5---------------|----------------|--------------------|
B|------6-8p7p6p4-6---|--------5-6-5---|--------------------|
G|--------------------|------7-------7-|-5------------------|
D|--------------------|----------------|---8-7-5------------|
A|--------------------|----------------|---------8-6-7-8----|
E|--------------------|----------------|--------------------|

  Bbmaj7              Am7b5   D7b9
  +E  E E E E E E E   E E E E E E E E
e|-------------------|-------5-6-------|
B|-----------------6-|---6-7-----7p6---|
G|-------5-------7---|-8-------------8-|
D|-----7---8-7-8-----|-----------------|
A|-(8)---------------|-----------------|
E|-------------------|-----------------|

  Gm7               Am7b5  D7b9    Gm7
  E E E E E E E E   E E Q  H       Q  Q  +H
e|-----------------|-------------||----6--(6)----|
B|-----------------|-------------||-8------------|
G|-5-6-7---7---5---|-------------||----3--(3)----|
D|-------8---8---5-|-8-5---------||-5------------|
A|-----------------|-------------||--------------|
E|-----------------|-------------||--------------|

                                                 Cm7  F7       Bbm7    Eb7
  E E  Q  Q  Q    Q  Q  +H       Q.   E Q  E E   H    Q  E E   E E E E Q  Q
e|---9h10--8--6--|----6--(6)----|-6----5h6------|---------9-8-|-----------------|
B|---------------|-8------------|-----------6---|-------------|---9-------------|
G|---6h=7--5--3--|----3--(3)----|-3----2h3----8-|---------6-5-|-------8-6--5----|
D|---------------|-5------------|-----------3---|-------------|---6-------------|
A|---------------|--------------|-------------6-|-------------|-------6-4--3----|
E|---------------|--------------|---------------|-------------|-----------------|

  Am7                D7b9
  +E  E E E E E Q    Q  E E E E E E
e|------------------|--------------6-|
B|-----5---8-7------|----------8-----|
G|-(5)---------7----|------7---------|
D|-----2---5-4------|----------5---8-|
A|-(3)---------5----|------5---------|
E|------------------|----------------|

  Gm7
   Q   Q  Q  Q    Q   Q  Q  Q    H    Q  Q
e|-10--10--8--8--|----10--8-----|--------------|
B|---------------|-9--10--8--8--|-6------------|
G|--7---7--5--5--|--------------|------7-------|
D|---------------|-6---7--5--5--|-3------------|
A|---------------|--------------|------5-------|
E|---------------|--------------|--------------|

                     Bbmaj7           Am7b5  D7b9
           |--3--|
  H    Q   E  E  E    Q  Q  Q  E  E    Q  Q   E  E  Q
e|------------------|----------------|------------------|
B|---------11-11-11-|-11----------10h|=11-----10h11-----|
G|------------------|----------------|--------------11--|
D|----------8--8--8-|--8-----------7h|==8------7h=8-----|
A|------------------|----------------|---------------9--|
E|------------------|----------------|------------------|

  Gm7               Am7b5    D7b9
  E E E  E Q  E E   E E E  E  Q   Q
e|-----------------|----------10--13---|
B|-----8-11--------|---8---11----------|
G|---7-----------7-|-----------7--10---|
D|-----5--8--------|---5----8----------|
A|---5-----------5-|-------------------|
E|-----------------|-------------------|

  Gm7
   Q.   E  Q.    E    +Q   E E +E  E E E
e|-12----8-11----10-|-(10)----9-(9)-8---6-|
B|------------------|---------------------|
G|--9----5--8-----7-|--(7)----6-(6)-5---3-|
D|------------------|---------------------|
A|------------------|---------------------|
E|------------------|---------------------|

                                 Cm7      F7
  Q  Q  Q  E E   H    E E E  E   E  E E E  E  Q  E
e|--------------|---------------|---11---9-10---------|
B|-8------------|----------8-11-|---------------------|
G|----6--5--3---|--------8------|----8---6--7-10--7---|
D|-5----------5-|----------5--8-|---------------------|
A|----4--3--1---|--------6------|--------------8--5---|
E|------------3-|---------------|---------------------|

  Bbm7  Eb7    Am7                D7b9             Gm7
  Q  Q  H      E  E E E E E E E   E E E E E E Q    H    E E E  E
e|------------|------------------|----------------|----------------|
B|------------|---13-------8-----|-6h7p6----------|----------8-11--|
G|-8----------|--------9-------9-|-------6--------|--------7-------|
D|------------|---10-------5-----|-3h4p3-----6-4--|----------5--8--|
A|-6----------|--------7-------7-|-------4--------|--------5-------|
E|------------|------------------|-----------4-2--|----------------|

                                                       Bbmaj7
  E  E E E Q   Q     Q   E  E Q  Q    Q  E E E E E E   Q  Q  E Q.
e|---10--------12--|-13--10-12-------|------9---6-----|---------------|
B|--------6-8------|--------------8--|--------------9-|-6-----5-------|
G|----7---------9--|-10---7--9-------|------6---------|----5----8-----|
D|--------3-5------|--------------5--|----------8---6-|-3-----2-------|
A|-----------------|-----------------|----------------|----3----6-----|
E|-----------------|-----------------|----------------|---------------|

       Am7bD7b9      Gm7                 Am7b5D7b9        Gm7
                                                 |-3-|       |-3-|     |-3-|
  +Q   E E E E E E   E  E  E E  E E Q    H    Q  E E E    Q  E E E  Q  E E E
e|------------------|---------9h10-8----|---------------||--------------------|
B|----------------7-|-8-10h11-----------|---------------||-8--------10--------|
G|-(8)----7-8-7-8---|---------6h=7-5----|---------7-7-7-||----9-9-9-----7-7-7-|
D|----------------4-|-5--7h=8-----------|---------------||-5---------7--------|
A|-(6)----5-6-5-6---|-------------------|---------5-5-5-||----7-7-7-----5-5-5-|
E|------------------|-------------------|---------------||--------------------|

     |-3-|     |-3-|      |-3-|     |-3-|
  Q  E E E  Q  E E E   Q  E E E  Q  E E E
e|--------------------|--------------------|
B|-8--------10--------|-8--------10--------|
G|----9-9-9-----7-7-7-|----9-9-9-----7-7-7-|
D|-5---------7--------|-5---------7--------|
A|----7-7-7-----5-5-5-|----7-7-7-----5-5-5-|
E|--------------------|--------------------|

                          Cm7       F7
     |-3-|      |--3--|       |-3-|     |--3--|
  Q  E E E  Q   E  E  E    Q  E E E Q   E  E  E
e|-----------------------|-10--------8-----------|
B|-8--------10-----------|-----------------------|
G|----9-9-9--------------|--7--8-8-8-5-----------|
D|-5---------7--11-11-11-|--------------11-11-11-|
A|----7-7-7--------------|-----6-6-6-------------|
E|---------------9--9--9-|---------------9--9--9-|

  Bbm7        Eb7            Am7
      |--3--|      |--3--|       |--3--|
  Q   E  E  E  Q   E  E  E   Q   E  E  E  Q  Q
e|-8------------------------|-7------------------|
B|-------------11-----------|-------------10-----|
G|-5------------------------|-4------------------|
D|----11-11-11--8--10-10-10-|----10-10-10--7-----|
A|--------------------------|--------------------|
E|-----9--9--9------8--8--8-|-----8--8--8--------|

  D7b9               Gm7
  E E  E E Q  E  E    Q   Q  Q  E  E
e|--------9-8--9-10-|-10-----------10-|
B|---7-11-----------|-----10----------|
G|-8------6-5--6--7-|--7------------7-|
D|---4--8-----------|------7----------|
A|-6----------------|-----------------|
E|------------------|-----------------|

                                                       Bbmaj7
  E  E E  E  Q  Q    +Q   Q  H      Q  E  E E E E  E    E  Q.    +Q    E  E
e|--------10--------|--------------|-----------9---12-|-12-13----(13)--12-11--|
B|---10------10-----|--------------|------11----------|-----------------------|
G|---------7-----9--|-(9)--7-------|-----------6----9-|--9-10----(10)---9--8--|
D|----7-------7-----|--------------|-------8----------|-----------------------|
A|---------------7--|-(7)--5-------|------------------|-----------------------|
E|------------------|--------------|------------------|-----------------------|

  Am7b5   D7b9     Gm7           Am7b5  D7b9       Gm7
  E E  Q  E E Q    Q  Q  Q  Q    Q  E E E E  Q      Q  E  E  Q  E E
e|---9-10--6------|-------------|----------6-10--||-13----10-12----8--|
B|-----------9----|-6--6--------|------8---------||-------------------|
G|---6--7--3---9--|-------9-----|----------3--7--||-10-----7--9----5--|
D|-----------6----|-3--3--------|------5---------||-------------------|
A|-------------7--|-------7-----|----------------||-------------------|
E|----------------|-------------|----------------||-------------------|

                                                  Cm7       F7
   Q  E E E E  Q    Q  Q  Q  Q    H    E E E  E   E E  E  E E E E  E
e|-10--6-8---------|-------------|---------------|--------10-----------|
B|-----------9-10--|-8--8--------|----------8-11-|---9-10------6-------|
G|--7--3-5---------|-------9--7--|--------8------|---------7-----9-----|
D|-----------6--7--|-5--5--------|----------5--8-|---6--7------3---11--|
A|-----------------|-------7--5--|--------6------|---------------7-----|
E|-----------------|-------------|---------------|------------------9--|

  Bbm7   Eb7      Am7               D7b9             Gm7
  Q  E E E E Q    E E E E E E  Q    E E E E E E Q    H    E E E E
e|---------------|-----------------|-------6-8-9-8--|------8-8-8-8--|
B|----6-8---7-8--|-7-8-7-----------|-----7----------|---------------|
G|-6-------------|-------7-6-------|---8---3-5-6-5--|------5-5-5-5--|
D|----3-5---4-5--|-4-5-4-----8-10--|-----4----------|---------------|
A|-4-------------|-------5-4-------|---6------------|---------------|
E|---------------|-----------6--8--|----------------|---------------|

                                                    Bbmaj7
  E E E E E  E E E   Q  Q  Q  Q    Q  E E E E E E   E E E E E E E E
e|---8---8-8-10---6-|-------------|------9---6-----|------------------|
B|------------------|-8--8--------|--------------9-|---6--------------|
G|---5---5-5--7---3-|-------9--7--|------6---3-----|-------9---8---6--|
D|------------------|-5--5--------|--------------6-|---3--------------|
A|------------------|-------7--5--|----------------|-------7---6---4--|
E|------------------|-------------|----------------|------------------|

  Am7b5  D7b9     Gm7         Am7b5D7b9
  Q  E E E E Q    H    H      H    Q  E E   +W           +H     H
e|---------------|-----------|------9--6-8-|-(8)--------|-(8)---------|
B|---------------|-----------|-8-----------|------------|-------------|
G|-8--7----------|------7----|------6--3-5-|-(5)--------|-(5)---------|
D|------6---5-7--|-5---------|-5-----------|------------|-------------|
A|-6--5----------|------5----|-------------|------------|-------------|
E|------4---3-5--|-3---------|-------------|------------|-------------|

 Piano Solo    Bass Solo     Drum Solo
  Wx62          Wx32          Wx8
e|-------------|-------------|--------|
B|-------------|-------------|--------|
G|-------------|-------------|--------|
D|-------------|-------------|--------|
A|-------------|-------------|--------|
E|-------------|-------------|--------|

[Guitar Theme]
  Gm7
  Q  Q  Q  Q    Q  Q  Q  Q    Q  Q  Q  Q    Q  Q  Q  Q
e|-------------|-------------|-------------|--------------|
B|-------------|-------------|-------------|--------------|
G|-------------|-------------|-------------|--------------|
D|----------5--|----------5--|----------5--|----------5---|
A|----5--3-----|----5--3-----|----5--3-----|----5--3------|
E|-3-----------|-3-----------|-3-----------|-3------------|

  Cm7   F7      Bbm7  Eb7     Am7   D7
  Q  Q  Q  Q    Q  Q  Q  Q    Q  Q  Q  Q
e|-------------|-------------|-------------|
B|-------------|-------------|-------------|
G|----------5--|-------------|-------------|
D|----5--3-----|----------8--|----------7--|
A|-3-----------|----8--6-----|----7--5-----|
E|-------------|-6-----------|-5-----------|

  Ebm7  Ab7     Gm7
  Q  Q  Q  Q    Q  Q  Q  Q    Q  Q  Q  Q
e|-------------|-------------|--------------|
B|-------------|-------------|--------------|
G|----------8--|-------------|--------------|
D|----8--6-----|----------5--|----------5---|
A|-6-----------|----5--3-----|----5--3------|
E|-------------|-3-----------|-3------------|

                              BbmajGm7 G#Am11    D7+9
  Q  Q  Q  Q    Q  Q  Q  Q    Q  E E E E Q    Q  Q  +H
e|-------------|-------------|---------------|--------------|
B|-------------|-------------|-3----3---2-3--|----6--(6)----|
G|-------------|-------------|-2----3---4-5--|----5--(5)----|
D|----------5--|----------5--|-3----3---4-5--|----4--(4)----|
A|----5--3-----|----5--3-----|-1-------------|----5--(5)----|
E|-3-----------|-3-----------|------3---4-5--|--------------|

  Gm7
  Q  Q  Q  Q    Q  Q  Q  E E   E E E E E E E E    E E E E E E E E
e|-------------|--------------|-----------------|-------------------|
B|-------------|--------------|-3-3-------------|-/4-3-----------3--|
G|-------------|----------3-5-|-------3-5-5---3-|------3-5-----3----|
D|----------5--|--------------|-----------------|------------5------|
A|----5--3-----|----5--3------|-----------------|-------------------|
E|-3-----------|-3------------|-----------------|-------------------|

                                     Cm7      F7       Bbm7     Eb7
  E E E E E E +Q     +H     Q  E E    Q   E E E E Q     Q   E E E E Q
e|------------------|---------------|-----------------|------------------|
B|------------------|---------------|-----------------|------------------|
G|-5-5--------------|---------------|-/7--/7----------|-/5--/5-----------|
D|-------5-7-7-(7)--|-(7)---------8-|-----------------|------------------|
A|------------------|---------------|--------8-8-8-6--|--------6-6-6-4---|
E|------------------|---------------|-----------------|------------------|

  Am7      D7       Ebm7        Ab7        Gm7
   Q   E E E E Q      Q    E  E  E  E Q    E E E E E E E E    E E E E E E E E
e|-----------------|----------------------|-----------------|-------------------|
B|-----------------|----------------------|-3-3-------------|-/4-3-----------3--|
G|-/4--/4----------|-/10--/10-------------|-------3-5-5---3-|------3-5-----3----|
D|-----------------|----------------------|-----------------|------------5------|
A|--------5-5-5-3--|----------11-11-11-9--|-----------------|-------------------|
E|-----------------|----------------------|-----------------|-------------------|

                                   BbmajGm7 G#Am11    D7+9
  E E E E E E +Q     +H.      Q    Q  E E E E Q    Q  Q  +H
e|------------------|-------------|---------------|--------------|
B|------------------|-------------|-3----3---2-3--|----6--(6)----|
G|-5-5--------------|-------------|-2----3---4-5--|----5--(5)----|
D|-------5-7-7-(7)--|-(7)---------|-3----3---4-5--|----4--(4)----|
A|------------------|-------------|-1-------------|----5--(5)----|
E|------------------|-------------|------3---4-5--|--------------|

[Outro]
    Gm7
    Q  Q  Q  Q    Q  Q  Q  Q    Q  Q  Q  Q    Q  Q  Q  Q
e|--------------|-------------|-------------|--------------|
B|o-------------|-------------|-------------|-------------o|
G|--------------|-------------|-------------|--------------|
D|-----------5--|----------5--|----------5--|----------5---|
A|o----5--3-----|----5--3-----|----5--3-----|----5--3-----o|
E|--3-----------|-3-----------|-3-----------|-3------------|

************************************

Duration Legend
---------------
W - whole; H - half; Q - quarter; E - 8th; S - 16th; T - 32nd; X - 64th; a - acciaccatura
+ - note tied to previous; . - note dotted; .. - note double dotted
Uncapitalized letters represent notes that are staccato (1/2 duration)
| (n)  Ghost note
| /    Slide up
| p    Pull-off
| h    Hammer-on

************************************

            
            
Suggest correction
Creating personal tab
Creating personal tab
You can edit any tab online and save it as your Personal.

You can edit, replace or remove any tab part or add personal notes – all changes will be seen only by you.

Personal tabs can be accessed anytime from any device, even offline.
Learn more »
comments
print report bad tab
8 comments total. Showing first comments.
+1 reply
Bjeck 10 Sep 11, 2006 09:17 PM

bravo.

+2 reply
guitarman47 132 Sep 30, 2006 05:52 PM

its incredible how wes never used a pick and always played with his thumb. that just amazes me

+1 reply
killjoys 209 May 06, 2008 04:10 PM

amzing tabbin
ur awsome tyvm

guest
You may want to rate the tab now too:
select rating
Wanna post a correction for this tab? Suggest correction