Oops, an error
Loading. Please wait.

Round Midnight Tab

version 1
version 1

Whole song

Interactive

34,776 views 54 this week
no commentswrite comment
1 2 3 4 5
x 5
add to favorites
launch autoscroll
font size
0
reset
how to read this tab
guitar tuner
backing track
0:00
0:00
×
Best way to learn
"Round Midnight"
Autoscroll
slow
fast
+/-
esc
set tempo
stop
Date: Sun, 04 Feb 96 20:12:58 -0800
From: roland kalus 
Subject: Tab: Wes Montgomery Title: Round Midnight
Transribed by Roland Kalus

[Intro]
e|------------------------4--------------------------5-sl-6--9-7-6-5-------|
B|-------------2--4-/-6----6-4-6-------------------7------------------6-5--|
G|----------3------------------------------------8-------------------------|
D|----3--4----------------------------5-6-8-/-9----------------------------|
A|-------------------------------------------------------------------------|
E|-------------------------------------------------------------------------|

e|--------------------------------------------------------------------------|
B|------------------6/7-5/4----------------------------2/3/2----------------|
G|-7-6--4-3-----------------5/6-2/3---------------------------6-4-3---------|
D|----------6-4---------------------4----3--------------------------6-4-3---|
A|--------------4----------------------6-------3----3---------------------6-|
E|------------------------------------------6-----6-------------------------|

[Verse](A-SECTION)
e|--------------------------------------------------------------------------|
B|-*------------------------------------------------------------------------|
G|-------------------------------7/8-------3--------------------6---8--5----|
D|-*----------8----------------------6--4-----4--6------------6---8---------|
A|-----6--8-----8/9---6-5-6-5-6--------------------------6--9---------------|
E|---6-------------------------------------------------6--------------------|
  
e|-----------------------------------------------------|
B|---------------------------------------7--6---------*|
G|-------7-----------6-----------------8-------10-/4/3-|
D|----7----7-6-----6---6-5-------6--9-----------------*|
A|--8------------7-------------6-----------------------|
E|-----------------------------------------------------|

1)
|----------------7/8-|
|----------7--10-----|
|------6-9-----------|
|----7---------------|
|-/9-----------------|
|--------------------|

e|/7------------------------------------------------------------------------|
B|---10-7--------------------------------------7--9/10-9-7------------------|
G|--------9-6-------------------------------8--------------8----------------|
D|-------------9--7--9-8-9----7-8-7-8-----8------------------8--6-4---------|
A|--------------------------9---------------------------------------6-4-6---|
E|--------------------------------------------------------------------------|

2)
e|---------------------------------------------------------------------------|
B|-----------------------------7---------------------------------------------|
G|------------------------6/7------7-6--4-3------------3---------------------|
D|--3-4-6--7/8--7/8--6--9---------------------6--4/5-------------------------|
A|---------------------------------------------------------------------------|
E|--------------------------------------------------------6------------------|

e|--------------------------------------|------------------------------------|
B|--------------------------------------|---4--6--/7-/7---6-7-9-7-6-4-6-6----|
G|--------THIS IS THE B-SECTION---------|---------------------------------3--|
D|--------------------------------------|---1--3--/4-/4---3-4-6-4-3-1-3-3----|
A|--------------------------------------|---------------------------------1--|
E|--------------------------------------|------------------------------------|

e|-----------------------------------------------------------11---------------|
B|-4--6--/7-/7---6-7-9-7-6-4-6---------------11--12--12--12-------------------|
G|-------------------------------3---5--6--------------------8----10--10--10--|
D|-1--3--/4-/4---3-4-6-4-3-1-3---------------8---9---9---9--------------------|
A|-------------------------------1---3--4-------------------------8---8---8---|
E|----------------------------------------------------------------------------|

e|-9-------------9--------------------11----------------10--------------9------|
B|----11-11-11------/9--------9--12-------------8---11---------7---10----------|
G|-6-------------6------8-------------8---10------------7---8-----------6------|
D|----8--8--8-------/6--------6--9--------------5---8----------4---7-----------|
A|----------------------6-----------------8-----------------6------------------|
E|-----------------------------------------------------------------------------|

e|---------------------------6-----|
B|-13---10---7---------------6-----|
G|---------------8--7--------10----|
D|-10---7----4---------------8-----|
A|---------------6--5--------5-----|
E|-----------------------6---------|

************************************

| /  Slide up
| *  Natural harmonic

************************************
Suggest correction
comments
print report bad tab
guest
You may want to rate the tab now too:
select rating
Wanna post a correction for this tab? Suggest correction