Oops, an error
Loading. Please wait.

Bisan Pa Tab

version 1
version 1

Whole song

32,663 views 54 this week
4 commentsread comments
1 2 3 4 5
x 9
add to favorites
×
Save as Personal and add changes to this tab that will be seen only by you. Learn more ›
×
You can save this tab as Personal to edit and correct it or add notes. All changes will be seen only by you. Learn more »
save as personal
new!
launch autoscroll
font size
0
reset
how to read this tab
guitar tuner
Autoscroll
slow
fast
+/-
esc
set tempo
stop
Difficulty
advanced
[Intro]
e|------------------------------|-------------------------0------|
B|----3-----3------3-----3---3--|---3----3------3-----3-3--------|
G|-----0-----0--------------0--0|----0----0------------0---------|
D|-5----5-4---4------------0----|-5---5-4--4---------------------|
A|---------------3---2s3--------|-------------3---2s3------------|
E|------------------------------|--------------------------------|

[Verse 1]
G        D     C          
Dili sayon ang hikalimtan ka...
G        D      C             
Hangtod karon ako nag-pa-abot pa....
G       D             C        
Nga Mahibalik pa ang kagahapon ta
Em          D         C    C
Bisan pa ug ako gikalimtan mo na....

[Chorus]
G               D        C  D
Bisan pa ug may la-in ka na karon
G             D           C  D
Ikaw lang gihapon ang higugma-on
G             D           C          D
Bisan pa ug kasakit lang ang ma-angkon
Em            D          C

[Instrumental]
e|------------------------------|-------------------------0------|
B|----3-----3------3-----3---3--|---3----3------3-----3-3--------|
G|-----0-----0--------------0--0|----0----0------------0---------|
D|-5----5-4---4------------0----|-5---5-4--4---------------------|
A|---------------3---2s3--------|-------------3---2s3------------|
E|------------------------------|--------------------------------|

[Verse 2]
G      D        C             
Nakita ko karon ang kahimtang mo....
G         D           C             
Lahi ra gyud sa ako pa ang ka-uban mo...(Ang kauban mo...)
G          D           C         
Sa iyang kiliran pagka malipayon mo
Em         D        C              D
Ug ako ani-a naghandom nga balikon mo...Ohh...
(Repeat Chorus)

[Bridge]
Am          Bm           C              D
Hangtod karon ako ming-laom lang gihapon..
Am        Bm           C              D
Nga mo-abot ang panahon nga imong balikon...

[Instrumental]
e|-------------------------------------------------------10-8-7---------------|
B|---------------------------------------8/10-10-8-7-5----------8--10b8-------|
G|---------------------------------7-9-7---------------7----------------9b7---|
D|------5-5--7/9-7-777/555/222-00-7-------------------------------------------|
A|--5/7--7-7------------------------------------------------------------------|
E|----------------------------------------------------------------------------|

e|---------------------------------------10------------------15--15--15-18b~~~~|
B|-------------------------8-8-8-8-10-10b--10b-88-8-8-8-13/15--15--15----------|
G|------------------------9-9-9-9----------------9-9-9-------------------------|
D|-10/12-12-101010/999/77------------------------------------------------------|
A|-----------------------------------------------------------------------------|
E|-----------------------------------------------------------------------------|

[Outro]
G D C           G C D
Bisan pa.... Bisan pa
Ang tanan akong dawaton


************************************

| b  Bend
| /  Slide up

************************************
Suggest correction
comments
print report bad tab
4 comments total. Showing first comments.
0 reply
asskickersUG1 10 Feb 17, 2010 09:33 PM

ang ganda-ganda po ng tab niyo..

kuhang-kuha talaga..

salamat...

kuha ko na ang lead...

thanks po

galing..

name mo po..?

0 reply
verbenlab 10 Jun 27, 2010 04:54 PM

tol may solo ka dun sa outro?

0 reply
paulkingsly 105 Oct 09, 2011 06:52 PM

aw...yong intro at solo mo galing yon sa intro at solo na version ko ahh..lol....copyright...may lyrics lang sau..:P

guest
Wanna post a correction for this tab? Suggest correction