Oops, an error
Loading. Please wait.

If You Were There bass

by Wham!
67 views 6 this week
2 commentsread comments
1 2 3 4 5
2 more votes to show rating
add to favorites
×
Save as Personal and add changes to this tab that will be seen only by you. Learn more ›
×
You can save this tab as Personal to edit and correct it or add notes. All changes will be seen only by you. Learn more »
launch autoscroll
font size
0
reset
guitar tuner
edit
Autoscroll
slow
fast
+/-
esc
set tempo
stop
Wham!- If You Were There- 1997

Tuning: Standard (EADG)

[Intro/Verse]

G|------------------------------------|
D|----------------4-------------------|
A|-0--0--2--4--4-----0--0--2--4--4----|
E|----------------------------------2-| X 8

[Middle]

G|------------------------------------|
D|----5/9-5-5-3-3---------------------|
A|-5--------------3-5-----------------|
E|------------------------------------| X 3

[Chorus]

G|------------------------------------|
D|------------------------------------|
A|-5-------5-3-------3-1--------------|
E|---5-5-5-----3-3-3------------------| X 4


************************************
| /    slide up
| X #  play # times
************************************
Suggest correction
Creating personal tab
Creating personal tab
You can edit any tab online and save it as your Personal.

You can edit, replace or remove any tab part or add personal notes – all changes will be seen only by you.

Personal tabs can be accessed anytime from any device, even offline.
Learn more »
Give kudos to tab author, rate the tab!
1 2 3 4 5
comments
print report bad tab
2 comments total.
0 reply
jerrymack123 20 May 10, 2017 02:16 PM

that's it?

0 reply
stargazer1701 1,060 May 10, 2017 04:24 PM

That's it. Listen to the song. Play over it.

guest
You may want to rate the tab now too:
select rating
Wanna post a correction for this tab? Suggest correction