Oops, an error
Loading. Please wait.

Last Christmas bass

version 3
version 3

Whole song

Interactive

by Wham!
82 views 3 this week
no commentswrite comment
1 2 3 4 5
3 more votes to show rating
add to favorites
×
Save as Personal and add changes to this tab that will be seen only by you. Learn more ›
×
You can save this tab as Personal to edit and correct it or add notes. All changes will be seen only by you. Learn more »
launch autoscroll
font size
0
reset
guitar tuner
edit
Autoscroll
slow
fast
+/-
esc
set tempo
stop
Author
Last Christmas
Single release by Eighties pop duo Wham. Reached number 2 UK Charts
Tab by bas50611.  Welcome to my tab. Not exact but closer than others
Symbol ‘.’ Pause dots

Intro:
G|------------------------------------------------------------------------|
D|------------------------------------------------------------------------|
A|-5-5-5-5-5-5-5-5-5---5-5-5-5--4-4-4-4---------------------------------4-|
E|--------------------------------------7-7-7-7-7-7-7-7---7-7-7-7-7-7-7---|

G|------------------------------------------------------|
D|-------------------------------4-5--------------------|
A|-7-7-7-7-7-7-7-7---7-7-7-7-7-7-----0---0---0--0--0--0-|
E|------------------------------------------------------|

Verse 1:
G|---------------------------------------------------------------------|
D|---------------------------------------------------------------------|
A|-5-5-5-5-5-5-5-5---5-5-5-5-5-6-5-4-------------------------------4-5-|
E|-----------------------------------7-7-7-7-7-7-7-7---7-7-7-7-7-7-----|

                                    ‘.’
G|------------------------------------------------------|
D|-------------------------------4-5-7------------------|
A|-7-7-7-7-7-7-7-7---7-7-7-7-7-7---------0---0--0--2--4-|
E|------------------------------------------------------|

Verse 2:
G|---------------------------------------------------------------------|
D|---------------------------------------------------------------------|
A|-5-5-5-5-5-5-5-5---5-5-5-5-5-6-5-4-------------------------------4-5-|
E|-----------------------------------7-7-7-7-7-7-7-7---7-7-7-7-7-7-----|

G|------------------------------------------------------|
D|-------------------------------4-5--------------------|
A|-7-7-7-7-7-7-7-7---7-7-7-7-7-7-----0---0---0--0--2--4-|
E|------------------------------------------------------|

Interlude:
G|---------------------------------------------------------------------|
D|---------------------------------------------------------------------|
A|-5-5-5-5-5-5-5-5---5-5-5-5-5-6-5-4-------------------------------4-5-|
E|-----------------------------------7-7-7-7-7-7-7-7---7-7-7-7-7-7-----|

                                    ‘.’
G|------------------------------------------------------|
D|-------------------------------4-5-7------------------|
A|-7-7-7-7-7-7-7-7---7-7-7-7-7-7---------0---0--0--2--4-|
E|------------------------------------------------------|

Verse 3:
G|------------------------------------------------------------------------|
D|------------------------------------------------------------------------|
A|-5-5-5-5-5-5-5-5-5---5-5-5-5--4-4-4-4---------------------------------4-|
E|--------------------------------------7-7-7-7-7-7-7-7---7-7-7-7-7-7-7---|


G|-------------------------------------------------------------------|
D|-------------------------------4-5---------------------------------|
A|-7-7-7-7-7-7-7-7---7-7-7-7-7-7-----0-0-0-0-0-0-0-0---0---0---0---0-|
E|-------------------------------------------------------------------|

Verse 4:
G|---------------------------------------------------------------------|
D|---------------------------------------------------------------------|
A|-5-5-5-5-5-5-5-5---5-5-5-5-5-6-5-4-------------------------------4-5-|
E|-----------------------------------7-7-7-7-7-7-7-7---7-7-7-7-7-7-----|

G|------------------------------------------------------------|
D|-------------------------------4-5-7-7-7-7------------------|
A|-7-7-7-7-7-7-7-7---7-7-7-7-7-7--------------0---0---0--2--4-|
E|------------------------------------------------------------|

Verse 5:
G|-------------------------------------------------------------------|
D|-------------------------------------------------------------------|
A|-5-5-5-5-5-5-5-5---5-5-5-5-5-6-5-4-----------------------------4-5-|
E|-----------------------------------7-7-7-7-7-7-7-7---7---7---7-----|

G|---------------------------------------------------------------------|
D|-------------------------------4-5-----------------------------------|
A|-7-7-7-7-7-7-7-7---7-7-7-7-7-7-----0-0-0-0-0-0-0-0---0---0---0--2--4-|
E|---------------------------------------------------------------------|

This is basically the song tab that just goes around and around with slight 
variations on the format of each verse.
Symbol ‘.’ Are pause dots




[Chorus]
Last Christmas, I gave you my heart
But the very next day, you gave it away
This year, to save me from tears
I'll give it to someone special

Last Christmas, I gave you my heart
But the very next day, you gave it away
This year, to save me from tears
I'll give it to someone special (special)

[Verse 1]
Once bitten and twice shy
I keep my distance but you still catch my eye
Tell me baby do you recognize me?
Well it's been a year, it doesn't surprise me

[Verse 2]
I wrapped it up and sent it
With a note saying "I Love You" I meant it
Now I know what a fool I've been
But if you kissed me now I know you'd fool me again

[Chorus]
Last Christmas, I gave you my heart
But the very next day, you gave it away
This year, to save me from tears
I'll give it to someone special (special)

Last Christmas, I gave you my heart
But the very next day, you gave it away
This year, to save me from tears
I'll give it to someone special (special)

[Verse 3]
A face on a lover with a fire in his heart
A man undercover but you tore him apart
Maybe next year,
I'll give it to someone, I'll give it to someone special
Special, someone, someone
I'll give it to someone, I'll give it to someone special

Who'll give me something in return
I'll give it to someone, hold my heart and watch it burn

[Verse 4]
I'll give it to someone, I'll give it to someone special
I thought you were here to stay
How can love be for a day?
I thought you were someone special, gave you my heart

[Outro]
I'll give it to someone, I'll give it to someone
Last Christmas I gave you my heart
You gave it away
I'll give it to someone, I'll give it to someone

            
            
Suggest correction
Creating personal tab
Creating personal tab
You can edit any tab online and save it as your Personal.

You can edit, replace or remove any tab part or add personal notes – all changes will be seen only by you.

Personal tabs can be accessed anytime from any device, even offline.
Learn more »
Give kudos to tab author, rate the tab!
1 2 3 4 5
comments
print report bad tab
guest
You may want to rate the tab now too:
select rating
Wanna post a correction for this tab? Suggest correction