Oops, an error
Loading. Please wait.

Teenage Dirtbag Bass Tab

version 1
version 1
53,422 views 84 this week
3 commentsread comments
1 2 3 4 5
x 21
add to favorites
launch autoscroll
font size
0
reset
guitar tuner
Autoscroll
slow
fast
+/-
esc
set tempo
stop
Help us to improve Ultimate-Guitar.com Take our survey!
×
Artist-Wheatus
Song-Teenage Dirtbag
McCurdyrcky@aol.com

This is the way I play the songVerse 1 (Her Name is Noel…)
G: ---------------------------------------------------------------|
D: ---------------------------------------------------------------|
A: ----------------------2--2----------------------------0--0-----|
E: -----0--0-----------------------------0--0---------------------|
Verse 2 (But she doesn’t know who I am…)

G: ----------------------------------|
D: ----------------------------------|
A: ----00-x22-x22-44-00-22-22--------|
E: -44-------------------------------|

Chorus 1 (Cos I’m just a teenage dirtbag baby…)
G: -----------------------|
D: ------------6---4------|
A: ----00-22-4---2--------|
E: -00--------------------|

Chorus 2 (Listen to Iron Maiden, baby…with me. Ooh)

G: --------------------------|
D: -------------6---4---2---4|
A: ----00-22-4---2---0---2---|
E: -00-----------------------|

Bridge 1 (Ooh yeah…dirtbag, No she doesn’t know what she’s missin’…)
G: -----------------------------|
D: -----------------------------|
A: --------2--0--------2--0-----|
E: --0-0---------0-0------------|

Bridge 2 (No she doesn’t know what she’s missin’…-2nd time)
G: -------------------------------------|
D: ---------------------6---4---2---4---|
A: -------2--0--------4---2---0---2-----|
E: --0-0--------0-0---------------------|

Quiet Part 2 (I’ve got two tickets to Iron Maiden baby, Come with me Friday…)
G: ---------------------------------------------------|
D: ---------------------------------6---4-------------|
A: ------------0-0-0-0--2-2-2-2---4---2---------------|
E: -0-0-0-0-------------------------------------------|

Quiet Part 2 (I’m just a teenage dirtbag, baby…like you. Ooh.)
G: ------------------------------------------------------------|
D: ----------------------------------6---4---2---4-------------|
A: -------------0-0-0-0--2-2-2-2---4---2---0---2---------------|
E: -0-0-0-0----------------------------------------------------|

Ending
G: ----------------------------------------------------|
D: ----------------------------------------------------|
A: --------------2-2-----------------------0-0---------|
E: -0-0-----------------------0-0--------------4-------|

G: -----------------------------------------------------------------------|
D: -----------------------------------------------------------------------|
A: --------------2-2--------------------0---------------------------------|
E: -0-0-----------------------0-0--------------5--4-2h4-2-------------0---|
Order

No Bass in IntroVerse 1 x 2
Verse 2
Chorus 1 x 3
Chorus 2
Verse 1 x 2
Verse 2
Chorus 1 x 3
Chorus 2
Bridge 1
Bridge 2
Verse 1 x 2
Quiet Part 1 x 3
Quiet Part 2
Bridge 1
Bridge 2
Ending



************************************

| x  Dead note
| h  Hammer-on

************************************
Suggest correction
comments
print report bad tab
3 comments total.
0 reply
Bryn Hall 10 Oct 02, 2007 01:10 PM

the verse is all wrond, the bass plays something different under the guitar

0 reply
ForkInTheRoad 10 Oct 29, 2007 01:35 AM

im not sure if its right but it all works cepy 1 part right at the end where you play EE AA then you should play EEE before going to 5th fret. thats all

0 reply
thefatpotatoe 10 May 22, 2013 03:38 PM

You sir have made an incorrect tab Here is a correct one : http://tabs.ultimate-guitar.com/w/wheatus/teenage_dirtbag_ver2_btab.htm

guest
You may want to rate the tab now too:
select rating
Wanna post a correction for this tab? Suggest correction