Oops, an error
Loading. Please wait.

Teenage Dirtbag Tab

version 5
version 5
by Wheatus
3,184 views 198 this week
no commentswrite comment
1 2 3 4 5
2 more votes to show rating
add to favorites
launch autoscroll
font size
0
reset
how to read this tab
guitar tuner
×
Best way to learn
"Teenage Dirtbag"
Autoscroll
slow
fast
+/-
esc
set tempo
stop
Author
verse 1:
e|-------------0-------0-------0-------0-------0-------0-------0-------0--------|
b|-------------0-------0-------0-------0-------0-------0-------0-------0--------|
g|------------------------------------------------------------------------------|
D|------------------------------------------------------------------------------|
A|------------------------------------------------------------------------------|
E|(12/)---0-0-----7-7-----0-0-----5-5-----0-0-----7-7-----0-0-----5-5-----------|

pre-chorus:
e|-------0-------0-------0-------0-------0-------0------------------------------|
b|-------0-------0-------0-------0-------0-------0------------------------------|
g|------------------------------------------------------------------------------|
D|------------------------------------------------------------------------------|
A|------------------------------------------------------------------------------|
E|--9-9-----5-5-----7-7-----7-7-----9-9-----5-5-----7-7-------------------------|

chorus: 
    E    A    B              (x4)   E    A    B
e|------------------------------------------------------------------------------|
b|------------------------------------------------------------------------------|
g|-------2-2--4-4------------------------2-0--4-4-------------------------------|
D|--2-2--2-2--4-4-------6-----------2-2--2-0--4-4-------6-----------------------|
A|--2-2--0-0--2-4--2/4--------6-----2-2--0-0--2-2--2/4--------6-----7----9------|
E|--0-0--------------------4--------0-0--------------------4-----5-----7--------|

verse 2: same as verse 1

chorus 2: same as the other chorus

Bridge - play chorus with palm mute

(Oh Yeah)              
e|-----------------------------------------------------------------------------|
b|-----------------------------------------------------------------------------|
g|-------2---------2---------2-------------------------------------------------|
D|--2-2--2----2-2--2----2-2--2-------6-----------------------------------------|
A|--2-2--0----2-2--0----2-2--0--2/4--------6-----7-----9-----------------------|
E|--0-0-------0-0-------0-0-------------4-----5-----7--------------------------|

outro                                                     E
e|--------------------------------------------------------0--------------------|
b|--------------------------------------------------------0--------------------|
g|-------4-4-------2-2--------4-4-------------------------1--------------------|
D|--2-2--4-4--2-2--2-2---2-2--4-4--2--2-------------------2--------------------|
A|--2-2--2-2--2-2--0-0---2-2--2-2--2--2-------------------2--------------------|
E|--0-0-------0-0--------0-0-------0--0----5--4--2--4--2--0--------------------|
Suggest correction
Give kudos to tab author, rate the tab!
1 2 3 4 5
comments
print report bad tab
guest
You may want to rate the tab now too:
select rating
Wanna post a correction for this tab? Suggest correction