Oops, an error
Loading. Please wait.

Brainwashed tab

2,131 views 24 this week
1 commentread comment
1 2 3 4 5
x 4
add to favorites
×
Save as Personal and add changes to this tab that will be seen only by you. Learn more ›
×
You can save this tab as Personal to edit and correct it or add notes. All changes will be seen only by you. Learn more »
launch autoscroll
font size
0
reset
how to read this tab
guitar tuner
edit
Autoscroll
slow
fast
+/-
esc
set tempo
stop
While she sleeps - Brainwashed
Tab - AlexT1235




D|-----------------------------------------------------------------------------------------|
A|-----------------------------------------------------------------------------------------|
F|-----------------------------------------------------------------------------------------|
C|-----------------------------------------------------------------------------------------|
G|--0~-5-0~-4-3-0~-3~-0-4-1-1-1--0~-5-0~-4-3-0~-3~-0-3-4-4-4--0~-5-0~-4-3-0~-3~-0-4-1-1-1--|
C|--0~-0-0~-4-3-0~-3~-0-4-1-1-1--0~-0-0~-4-3-0~-3~-0-3-4-4-4--0~-0-0~-4-3-0~-3~-0-4-1-1-1--|

D|-------------------|      D|----------------|
A|-------------------|      A|----------------|
F|-------------------|      F|----------------| 
C|-------------------| X2   C|----------------|
G|--0~-5-0~-4-3-0-3--|      G|----------------|
C|--0~-0-0~-4-3-0-3--|      C|--0-10-0-10-12--|       

 

D|-------------------|                |--------------- -------------|
A|-------------------|                |----------------------------|
F|-------------------|                |----------------------------|
C|--0~~---------0~~--| (BRAINWASHED!) |--0~~---------0~~-----------|
G|--0~~---------0~~--|                |--0~~---------0~~--0-1-0-1--|
C|--0~~-0-0-0-0-0~~--|                |--0~~-0-0-0-0-0~~--0-1-0-1--|





D|------------------------------------------------------------------------------------------------|
A|------------------------------------------4~------------------------------------------------4~--|
F|------------------------------------------7~------------------------------------------------7~--|
C|--0~-4-3-0~-4-3-0~-3~-4-1-1-1-0~-1-0-1-0~----0-3-4-3-0~-4-3-0-4-3-0~-3~-4-1-1-1-0~-1-0-1-0~-----|
G|--0~-4-3-0~-4-3-0~-3~-4-1-1-1-0~-1-0-1-0~----0-3-4-3-0~-4-3-0-4-3-0~-3~-4-1-1-1-0~-1-0-1-0~-----|
C|--0~-4-3-0~-4-3-0~-3~-4-1-1-1-0~-1-0-1-0~----0-3-4-3-0~-4-3-0-4-3-0~-3~-4-1-1-1-0~-1-0-1-0~-----|

D|-----------------|    |------------------------------|   
A|-----------------|    |------------------------------|   
F|-----------------|    |------------------------------|  
C|--0~-3~-4-1-0~~--|    |------------------------------|   
G|--0~-3~-4-1-0~~--|    |--0-----0-----0-----0-----\\--|   
C|--0~-3~-4-1-0~~--|    |--0-0-0-0-0-0-0-0-0-0-0-0-\\--|  





D|--------------------------------------------------------|
A|--------------------------------------------------------|
F|--------------------------------------------------------|
C|--------------------------------------------------------| X3
G|--5-------3-------5-------3------5-------8------7-------|
C|--0-(X13)-0-(X2)--2-(X13)-2-(X2)-3-(X13)-5-(X8)-5-(X7)--|


Played over third time
D|-------------------------------------------------|
A|-------------------------------------------------|
F|--7-------5-------7-------5-------7--------10-9--|
C|--x-------x-------x-------x-------x--------x--x--|
G|--5-(x13)-3-(x2)--5-(x13)-3-(x2)--5-(x13)--8--7--|
C|-------------------------------------------------|


RIFF!!

D|-----------------------------------------------------------------------------------|
A|-----------------------------------------------------------------------------------|
F|-----------------------------------------------------------------------------------|
C|-----------------------------------------------------------------------------------|
G|-----------------------------------------------------------------------------------|
C|--12-12-12-12-13P-12-12-12-12-15P-12-12-12-12-16P-12-12-12-12-15P-12-12-12-12-13P--|


D|-----------------------------------------------------------------------|
A|-----------------------------------------------------------------------|
F|-----------------------------------------------------------------------|
C|-----------------------------------------------------------------------|
G|--------------------------------------------------------------0-0-0-0--|
C|--12-12-12-12-13P-12-12-12-12-15P-12-12-12-12-16P-12-12-12-12-0-0-0-0--|


D|-----------------------------------------------------------------------------------|
A|-----------------------------------------------------------------------------------|
F|-----------------------------------------------------------------------------------|
C|-----------------------------------------------------------------------------------|
G|-----------------------------------------------------------------------------------|
C|--12-12-12-12-13P-12-12-12-12-15P-12-12-12-12-16P-12-12-12-12-15P-12-12-12-12-13P--|


D|----------------------------------------------------------------|
A|----------------------------------------------------------------|
F|----------------------------------------------------------------|
C|----------------------------------------------------------------|
G|-----------------------------------------------6-----3---6------|
C|--12-12-12-12-13P-12-12-12-12-15P-12-12-12-12----4-1---1---4-1--|



D|---------------------------------------------------------------------------------------------------|
A|---------------------------------------------------------------------------------------------------|
F|---------------------------------------------------------------------------------------------------|
C|--0~-7/9-0~-----8-8-8-3-3-3-7-7-7-1-1-1-1-------0~-7/9-0~-----8-8-8-3-3-3-7-7-7--------------------| x2
G|--0~-5/7-0~-----8-8-8-3-3-3-7-7-7-1-1-1-1-6-----0~-5/7-0~-----8-8-8-3-3-3-7-7-7---------------6----|
C|--0~-----0~-0-0-8-8-8-3-3-3-7-7-7-1-1-1-1---4-1-0~-----0~-0-0-8-8-8-3-3-3-7-7-7-12-12-12-12-4---1--|


Guitar 1
D|---------------------------------------------------------------|
A|---------------------------------------------------------------|
F|---------------------------------------------------------------|
C|---------------------------------------------------------------|x4
G|--0-------0-------0-------0-5-5-5-0-----0-----0-8-8-8-8-7-7-7--|
C|--0-0-0-0-0-0-0-0-0-0-0-0-0-0-0-0-0-0-0-0-0-0-0-8-8-8-8-7-7-7--|



Guitar 2
D|---------------------------------------------------------------------|
A|--10~~-10~~-10~~-10~~-8~~-8~~8/11~-11~~-10~~-10~~-10~~-10~~-5~~-6~~--|
F|---------------------------------------------------------------------|
C|---------------------------------------------------------------------|
G|---------------------------------------------------------------------|
C|---------------------------------------------------------------------|

D|------------------------------------------------------------------|
A|------------------------------------------------------------------|
F|-----------------------------------------------10-10-10-10-9-9-9--|
C|------------------------------------------------x--x--x--x-x-x-x--|x2
G|--0-------0-------0-------0-5-5-5-0-----0-----0-8--8--8--8-7-7-7--|
C|--0-0-0-0-0-0-0-0-0-0-0-0-0-0-0-0-0-0-0-0-0-0-0-------------------|



Guitar 1
D|--------------------------------------------------------|
A|--------------------------------------------------------|
F|--------------------------------------------------------|
C|--------------------------------------------------------| 
G|--5-------3-------5-------3------5-------8------7-------|
C|--0-(X13)-0-(X2)--2-(X13)-2-(X2)-3-(X13)-5-(X8)-5-(X4)--|


D|---------|
A|---------|
F|---------|
C|--8-7-0--|
G|--8-7-0--|
C|--8-7-0--|

D|--------------------------------------------------------|
A|--------------------------------------------------------|
F|--------------------------------------------------------|
C|--------------------------------------------------------| x2
G|--5-------3-------5-------3------5-------8------7-------|
C|--0-(X12)-0-(X2)--2-(X13)-2-(X2)-3-(X13)-5-(X8)-5-(X4)--|

Guitar 2 - played over second time
D|-------------------------------------------------|
A|-------------------------------------------------|
F|--7-------5-------7-------5-------7--------10-9--|
C|--x-------x-------x-------x-------x--------x--x--|
G|--5-(x13)-3-(x2)--5-(x13)-3-(x2)--5-(x13)--8--7--|
C|-------------------------------------------------|


D|-------------------------------------|
A|-------------------------------------|
F|-------------------------------------|
C|--0~~----------0~~-------------------|
G|--0~~--6-----3-0~~--6-----3---6------|
C|--0~~----4-1---0~~----4-1---1---4-1--|

WE'RE BEING BRAINWASHED!

D|-----------------------------------------------------------------------------------|
A|-----------------------------------------------------------------------------------|
F|-----------------------------------------------------------------------------------|
C|-----------------------------------------------------------------------------------|
G|-----------------------------------------------------------------------------------|
C|--12-12-12-12-13P-12-12-12-12-15P-12-12-12-12-16P-12-12-12-12-15P-12-12-12-12-13P--|


D|------------------------------------------------------------------------------|
A|------------------------------------------------------------------------------|
F|------------------------------------------------------------------------------|
C|------------------------------------------------------------------------------| X4
G|--------------------------------------------------------------6----3---6------|
C|--12-12-12-12-13P-12-12-12-12-15P-12-12-12-12-16P-12-12-12-12--4-1---1---4-1--|

D|-----------------|
A|-----------------|
F|-----------------|
C|-----------------| X2
G|-6----3---6------|
C|--4-1---1---4-1--|




************************************

| x   Dead note
| g   Grace note
| (n) Ghost note
| h   Hammer-on
| p   Pull-off
| r   Release
| >   Accented note
| t   Tapping
| b   Bend
| br  Bend release
| pb  Pre-bend
| pbr Pre-bend release
| /   Slide up
| \   Slide down
| ~   Vibrato
| s   Slap
| P   Pop
| PM  Palm mute
| TR  Trill
| N   Tremolo

************************************

            
            
Suggest correction
Creating personal tab
Creating personal tab
You can edit any tab online and save it as your Personal.

You can edit, replace or remove any tab part or add personal notes – all changes will be seen only by you.

Personal tabs can be accessed anytime from any device, even offline.
Learn more »
comments
print report bad tab
1 comment total.
0 reply
WoeVI 133 Apr 09, 2016 02:17 PM

fair amount of errors lad, i'll post an updated version soon init

apparently i have to have at least 15 words to comment so wtf

guest
You may want to rate the tab now too:
select rating
Wanna post a correction for this tab? Suggest correction