Oops, an error
Loading. Please wait.

Clap Your Hands tab

3,577 views 99 this week
no commentswrite comment
1 2 3 4 5
x 5
add to favorites
×
Save as Personal and add changes to this tab that will be seen only by you. Learn more ›
×
You can save this tab as Personal to edit and correct it or add notes. All changes will be seen only by you. Learn more »
launch autoscroll
font size
0
reset
how to read this tab
guitar tuner
edit
Autoscroll
slow
fast
+/-
esc
set tempo
stop
Author
Difficulty
About this tab version
(Listen to song for tempo, progression repeats throughout song until bridge). Was this info helpful? Yes No
Whilk & Misky - Clap Your Hands
Tabbed by: Brooke Seim
  


[Intro]

             Cmaj7
e|---------------------------------------------------------------------------|
B|------------4---4-------------4---4----------------4---4-------------------|
G|------------5---5-------------5---5----------------5---5-------------------|
D|------------4---4-------------4---4----------------4---4-------------------|
A|-----2/3---------------2/3-----------------2/3-----------------------------|
E|---------------------------------------------------------------------------|
                                Bm
e|---------------------------------------------------------------------------|
B|---------4-------------4-----------3---3-----------3---3-------------------|
G|---------5-------------5-----------4---4-----------4---4-------------------|
D|---------4-------------4-----------4---4-----------4---4-------------------|
A|---2/3----------2/3-----------0h2------------0h2---------------------------|
E|---------------------------------------------------------------------------|
     B7
e|---------2---2------x--2--x--2---------------------------------------------|
B|---------0---0------x--0--x--0---------------------------------------------|
G|---------2---2------x--2--x--2---------------------------------------------|
D|---------------------------------------------------------------------------|
A|---0h2---------------------------------------------------------------------|
E|---------------------------------------------------------------------------|


[Verse]

              Cmaj7
e|---------------------------------------------------------------------------| 
B|------------4---4-------------4---4----------------4---4-------------------|
G|------------5---5-------------5---5----------------5---5-------------------|   
D|------------4---4-------------4---4----------------4---4-------------------|
A|-----2/3---------------2/3-----------------2/3-----------------------------| 
E|---------------------------------------------------------------------------|      
                                Bm
e|---------------------------------------------------------------------------|
B|---------4-------------4-----------3---3-----------3---3-------------------|         
G|---------5-------------5-----------4---4-----------4---4-------------------|         
D|---------4-------------4-----------4---4-----------4---4-------------------|           
A|---2/3----------2/3-----------0h2------------0h2---------------------------|              
E|---------------------------------------------------------------------------|          
     B7
e|---------2---2------x--2--x--2---------------------------------------------|        
B|---------0---0------x--0--x--0---------------------------------------------|          
G|---------2---2------x--2--x--2---------------------------------------------|
D|---------------------------------------------------------------------------|     
A|---0h2---------------------------------------------------------------------|
E|---------------------------------------------------------------------------|  
   
                                     x4
So clap your hands, 
Feel the beat as you start to dance
Hear the rhythm as you take your stance
Feel the love and romance

And stomp your feet, 
Everybody just bounce to the beats
Taste that rhythm they hold so sweet
Feel the love as we dance
   
       
           Cmaj7
e|---------------------------------------------------------------------------| 
B|------------4---4-------------4---4----------------4---4-------------------|
G|------------5---5-------------5---5----------------5---5-------------------|   
D|------------4---4-------------4---4----------------4---4-------------------|
A|-----2/3---------------2/3-----------------2/3-----------------------------| 
E|---------------------------------------------------------------------------|      
                                Bm
e|---------------------------------------------------------------------------|
B|---------4-------------4-----------3---3-----------3---3-------------------|         
G|---------5-------------5-----------4---4-----------4---4-------------------|         
D|---------4-------------4-----------4---4-----------4---4-------------------|           
A|---2/3----------2/3-----------0h2------------0h2---------------------------|              
E|---------------------------------------------------------------------------|          
     B7
e|---------2---2------x--2--x--2---------------------------------------------|        
B|---------0---0------x--0--x--0---------------------------------------------|          
G|---------2---2------x--2--x--2---------------------------------------------|
D|---------------------------------------------------------------------------|     
A|---0h2---------------------------------------------------------------------|
E|---------------------------------------------------------------------------|  

                                    x4
           Cmaj7
e|---------------------------------------------------------------------------| 
B|------------4---4-------------4---4----------------4---4-------------------|
G|------------5---5-------------5---5----------------5---5-------------------|   
D|------------4---4-------------4---4----------------4---4-------------------|
A|-----2/3---------------2/3-----------------2/3-----------------------------| 
E|---------------------------------------------------------------------------|      
                                Bm
e|---------------------------------------------------------------------------|
B|---------4-------------4-----------3---3-----------3---3-------------------|         
G|---------5-------------5-----------4---4-----------4---4-------------------|         
D|---------4-------------4-----------4---4-----------4---4-------------------|           
A|---2/3----------2/3-----------0h2------------0h2---------------------------|              
E|---------------------------------------------------------------------------|          
     B7
e|---------2---2------x--2--x--2---------------------------------------------|        
B|---------0---0------x--0--x--0---------------------------------------------|          
G|---------2---2------x--2--x--2---------------------------------------------|
D|---------------------------------------------------------------------------|     
A|---0h2---------------------------------------------------------------------|
E|---------------------------------------------------------------------------|  
                                   
                                    x4
So clap your hands
Steal the moment as you shake and prance
Feel that lovin' as you twist and dance
Make the most of this chance

And stomp your feet
Feel the thump of the ground underneath
Steal the heart of the sound and the beat
Feel the love and romance

           
           Cmaj7
e|---------------------------------------------------------------------------| 
B|------------4---4-------------4---4----------------4---4-------------------|
G|------------5---5-------------5---5----------------5---5-------------------|   
D|------------4---4-------------4---4----------------4---4-------------------|
A|-----2/3---------------2/3-----------------2/3-----------------------------| 
E|---------------------------------------------------------------------------|      
                                Bm
e|---------------------------------------------------------------------------|
B|---------4-------------4-----------3---3-----------3---3-------------------|         
G|---------5-------------5-----------4---4-----------4---4-------------------|         
D|---------4-------------4-----------4---4-----------4---4-------------------|           
A|---2/3----------2/3-----------0h2------------0h2---------------------------|              
E|---------------------------------------------------------------------------|          
     B7
e|---------2---2------x--2--x--2---------------------------------------------|        
B|---------0---0------x--0--x--0---------------------------------------------|          
G|---------2---2------x--2--x--2---------------------------------------------|
D|---------------------------------------------------------------------------|     
A|---0h2---------------------------------------------------------------------|
E|---------------------------------------------------------------------------|

                                   x4


[Bridge]

Bm*              B7*
Feelin', feelin' dreamy
     Cmaj7*          B7*    B7*
As I float along the waves
       Bm*              B7*
And I'm smiling at these dreams again
      Cmaj7*           B7*      B7*
Yeah, I'm feeling these dreams

Feel these dreams again

           Cmaj7
e|---------------------------------------------------------------------------| 
B|------------4---4-------------4---4----------------4---4-------------------|
G|------------5---5-------------5---5----------------5---5-------------------|   
D|------------4---4-------------4---4----------------4---4-------------------|
A|-----2/3---------------2/3-----------------2/3-----------------------------| 
E|---------------------------------------------------------------------------|      
                                Bm
e|---------------------------------------------------------------------------|
B|---------4-------------4-----------3---3-----------3---3-------------------|         
G|---------5-------------5-----------4---4-----------4---4-------------------|         
D|---------4-------------4-----------4---4-----------4---4-------------------|           
A|---2/3----------2/3-----------0h2------------0h2---------------------------|              
E|---------------------------------------------------------------------------|          
     B7
e|---------2---2------x--2--x--2---------------------------------------------|        
B|---------0---0------x--0--x--0---------------------------------------------|          
G|---------2---2------x--2--x--2---------------------------------------------|
D|---------------------------------------------------------------------------|     
A|---0h2---------------------------------------------------------------------|
E|---------------------------------------------------------------------------|
         
                                     x4

Taking hold
Put myself in your control
Lose all feels, lose yourself
To the moment, to no one else
Trust me now, let it out
Free your soul, you know how
In the dark or in the light
We merge our hearts, day or night


[Outro]

            Cmaj7
e|---------------------------------------------------------------------------| 
B|------------4---4-------------4---4----------------4---4-------------------|
G|------------5---5-------------5---5----------------5---5-------------------|   
D|------------4---4-------------4---4----------------4---4-------------------|
A|-----2/3---------------2/3-----------------2/3-----------------------------| 
E|---------------------------------------------------------------------------|      
                                Bm
e|---------------------------------------------------------------------------|
B|---------4-------------4-----------3---3-----------3---3-------------------|         
G|---------5-------------5-----------4---4-----------4---4-------------------|         
D|---------4-------------4-----------4---4-----------4---4-------------------|           
A|---2/3----------2/3-----------0h2------------0h2---------------------------|              
E|---------------------------------------------------------------------------|          
     B7
e|---------2---2------x--2--x--2---------------------------------------------|        
B|---------0---0------x--0--x--0---------------------------------------------|          
G|---------2---2------x--2--x--2---------------------------------------------|
D|---------------------------------------------------------------------------|     
A|---0h2---------------------------------------------------------------------|
E|---------------------------------------------------------------------------|
         
                                     x12


  * one strum

************************************

| x  Dead note
| h  Hammer-on
| /  Slide up 

************************************

            
            
Suggest correction
Creating personal tab
Creating personal tab
You can edit any tab online and save it as your Personal.

You can edit, replace or remove any tab part or add personal notes – all changes will be seen only by you.

Personal tabs can be accessed anytime from any device, even offline.
Learn more »
comments
print report bad tab
guest
You may want to rate the tab now too:
select rating
Wanna post a correction for this tab? Suggest correction