Oops, an error
Loading. Please wait.

Ambient Silence Tab

2,515 views 18 this week
no commentswrite comment
1 2 3 4 5
2 more votes to show rating
add to favorites
launch autoscroll
font size
0
reset
how to read this tab
guitar tuner
×
Best way to learn
"Ambient Silence"
Autoscroll
slow
fast
+/-
esc
set tempo
stop
Author
Artist:Whind of Change
Song:Ambient Silence
Summited by Bryant Barrera

Intro
E--------|------------|--------------------------|-------------------|
B--------|------------|--------------------------|-------------------|
G--------|--------0---|----0-----2---1---4---4---|----6---9---9------|
D------2-|------4---4-|------0-----2---2---2---2-|--7---7---7---7--0-|
A----2---|----2-------|--2-----0-----------------|-------------------|
E--0-----|--0---------|--------------------------|-------------------|

E----------------|----------------|----|
B----------------|----------------|----|
G--------0-------|--------0-------|--1-|
D------2---3---0-|------4---4---0-|--2-|
A----3-------3---|----5-------5---|--2-|
E--3-------------|--5-------------|----|

Verse
E-------|----------|
B-------|----------|
G--1--1-|--2--1--4-|
D--2--4-|--2--2--2-|
A--2—-2-|----------|
E-------|----------|

E----------|----------|-------|
B----------|----------|-------|
G--1--1--1-|--2--1--4-|--6--9-|
D--2--4--2-|--2--2--2-|--7--7-|
A--2--2--2-|----------|-------|
E----------|----------|-------|

Pre-chorus
E-------------|-------------|----|
B-------------|-------------|----|
G--------0--0-|--------0--0-|--1-|
D------2----2-|------4----4-|--2-|
A----3------3-|----5------5-|--2-|
E--3--------3-|--5--------5-|----|

Chorus
E----------|----------|
B----------|----------|
G--0--0--1-|--0--0--1-|
D--2--4--2-|--2--4--2-|
A-—3--5--2-|-—3--5--2-|
E-—3--5--=-|--3--5----|

Verse
E-------|----------|
B-------|----------|
G--1--1-|--2--1--4-|
D--2--4-|--2--2--2-|
A--2—-2-|----------|
E-------|----------|

Bridge
E--------------------------|----------------------------|
B--------------------------|----------------------------|
G--1-------1-------1-------|----------------------------|
D--2-------2-------2-------|--7--5--2--------------2--4-|
A--2-------2-------2-------|--5--5--3--0--2--3--5--3--5-|
E----2-s-5---2-s-5---2-s-5-|--7--3-----1--3--3--5--3--5-|

Solo
E-----------|-----------------------|----------------|
B-----------|-----------11----------|----------------|
G--13-12-13-|--13-12-13----13-12-13-|--13-12---------|
D-----------|-----------------------|---------15-13--|
A-----------|-----------------------|----------------|
E-----------|-----------------------|----------------|
E--------------------|--------|----------------|
B-----------------12-|--------|----------------|
G--13----17-18-17----|-13vvvv-|-13-s-8-6-------|
D-----15-------------|--------|----------9-8-6-|
A--------------------|--------|----------------|
E--------------------|--------|----------------|
Suggest correction
Give kudos to tab author, rate the tab!
1 2 3 4 5
comments
print report bad tab
guest
You may want to rate the tab now too:
select rating
Wanna post a correction for this tab? Suggest correction