Oops, an error
Loading. Please wait.

Twinkle Tab

1,383 views 1 this week
no commentswrite comment
1 2 3 4 5
2 more votes to show rating
add to favorites
launch autoscroll
font size
0
reset
how to read this tab
guitar tuner
Autoscroll
slow
fast
+/-
esc
set tempo
stop
Help us to improve Ultimate-Guitar.com Take our survey!
×
Author
Intro&Verse
e-------------------------------------------------------------------------|
A-------------------------------------------------------------------------|
D--11-11-11-11-11-11-11-14--14--------------------------------------------|
G--11-11-11-11-11-11-11-14--14--12-12-12-12-12-12-12-12-12-12-------------|
B--9--9--9--9--9--9--9--12--12--12-12-12-12-12-12-12-12-12-12-------------|
E-------------------------------10-10-10-10-10-10-10-10-10-10-------------| x5

Chorus:
e-----------------------------------------------------------------------|
A-----------------------------------------------------------------------|
D--11-11-11-11-11-----------------------------------11-11-11-11-11------|
G--11-11-11-11-11--5--5--5--5--5--5--12-12-12-12-12-11-11-11-11-11------|
B--9--9--9--9--9---5--5--5--5--5--5--12-12-12-12-12-9--9--9--9--9-------|
E------------------3--3--3--3--3--3--10-10-10-10-10---------------------| x4

Bridge:
e------------------------------------------------------------------------|
A------------------------------------------------------------------------|
D--444444--------444444-777777-444444--------444444--------444444--------|
G--444444-555555-444444-777777-444444-555555-444444-777777-444444-777777-|
B--222222-555555-222222-555555-222222-555555-222222-777777-222222-777777-|
E---------333333----------------------333333--------555555--------555555-|

That's it really....making more soon...preferably from Irish artists...
Dylan=]
Suggest correction
Give kudos to tab author, rate the tab!
1 2 3 4 5
comments
print report bad tab
guest
You may want to rate the tab now too:
select rating
Wanna post a correction for this tab? Suggest correction