Oops, an error
Loading. Please wait.

Alsation Bass Tab

495 views 1 this week
2 commentsread comments
1 2 3 4 5
excellent!
x 3
add to favorites
launch autoscroll
font size
0
reset
guitar tuner
Autoscroll
slow
fast
+/-
esc
set tempo
stop
Help us to improve Ultimate-Guitar.com Take our survey!
×
Author
Intro
G------------------------------|
D------------------------------|   X4 (only 1st time with slide)
A----/6-6-4-6-----6-6-44-66-9--|
E------------------------------|

G--------------------------------|
D--------------------------------|  X2
A----6-6-4-6--------6-6-44-66-9--|
E--------------0-----------------|


Verse
G--------------------------------|
D--------------------------------|
A----666666666666666666666666666-|  For the whole verse
E--------------------------------|


Chorus
G-----------------------------------------|
D---------------6644----------------------|
A---6(x16)4(x16)----2(x16)-----6(x8)------|
E-------------------------4(x8)-----------|

That's about it. It seems pretty simple but I think I've got it, though the timing might 
bore than 16s and 8s

http://www.whiterosemovement.co.uk/
Suggest correction
Give kudos to tab author, rate the tab!
1 2 3 4 5
comments
print report bad tab
2 comments total.
+1 reply
FilterPuppy 71 wrote on May 8 2006, 01:33 pm

Awesome!

+1 reply
WhiteStripesIII 263 wrote on November 1 2006, 12:06 pm

great job! :)

guest
You may want to rate the tab now too:
select rating
Wanna post a correction for this tab? Suggest correction