Oops, an error
Loading. Please wait.

Girls In The Back Bass Tab

430 views 1 this week
no commentswrite comment
1 2 3 4 5
please rate
add to favorites
launch autoscroll
font size
0
reset
guitar tuner
Autoscroll
slow
fast
+/-
esc
set tempo
stop
Help us to improve Ultimate-Guitar.com Take our survey!
×
Author
Difficulty
intermediate
Band:      White Rose Movement
Song:      Girls In The Back
Album:     Kick
Tabbed by: Arlin


This is a really fun song to play.
The chorus bit doesn't need the hammer-ons
on the Estring, but it sounds better
Enjoy!

g--------------------------------------------------|
d--------6-----6-----6-----6-----4-----4-----4-----|
a--------------------------------------------------|
E---4-4---4-4---4-4---4-4---2-2---2-2---2-2---2-2--|

g-----------------------------|
d-----------------------------|
a-----------------------------|
E--4-4---4-4---2-2-2---2-2-2--|

g-------------------------------|
d-------------------------------|
a-------------------------------|
E--4-4-4-4---4-4-4-4---2-2-2-2--|

g--------------------|
d--22222222----------|
a----------44444444--|
E--------------------|

g-------------------------------------------------------------------|
d-------------------------------------------------------------------|
a-------------------------------------------------------------------|
E--4-4-4-4-4-4-4-4-4-4-4-4-4-4-4-4-2-2-2-2-2-2-2-2-2-2-2-2-2-2-2-2--|

g---------------------------------------------------|
d---------------------------------------------------|
a---------------------------------------------------|
E--4-4-4-4-4-4-4-4-4-4-4-4-4-4-4-4-2-2-2-2-2-2-2-2--|

g--------------------|
d--22222222----------|
a----------44444444--|
E--------------------|

g-----------------------------------------------|
d-------6p4h6----------6p4------6p4h6------6p4--|
a-----------------------------------------------|
E--2h4-4--------2h4-4------4-4--------4-4-------|

g--------------------------------------------|
d-------4p2h4-------4p2------4p2h4------4p2--|
a--------------------------------------------|
E--2-2---------2-2------2-2--------2-2-------|

g-----------------------------------------------|
d-------6p4h6----------6p4------6p4h6------6p4--|
a-----------------------------------------------|
E--2h4-4--------2h4-4------4-4--------4-4-------|

g------------------------|
d-------4p2h4-------4p2--|
a------------------------|
E--2-2---------2-2-------|

g--------------------|
d--22222222----------|
a----------44444444--|
E--------------------|

g-----------------------------------------------------------|
d--666666666666666666666666666666444444444444444422222222---|
a--------------------------------------------------------4--|
E-----------------------------------------------------------|

g--------------------------------------------------|
d--------6-----6-----6-----6-----4-----4-----4-----|
a--------------------------------------------------|
E---4-4---4-4---4-4---4-4---2-2---2-2---2-2---2-2--|

g--------------------------------------|
d--6-----6-----6-----6-----6-----4-----|
a--------------------------------------|
E---4-4---4-4---4-4---4-4---2-2---2-2--|

g--------------------|
d--22222222----------|
a----------44444444--|
E--------------------|

g-----------------------------------------------|
d-------6p4h6----------6p4------6p4h6------6p4--|
a-----------------------------------------------|
E--2h4-4--------2h4-4------4-4--------4-4-------|

g--------------------------------------------|
d-------4p2h4-------4p2------4p2h4------4p2--|
a--------------------------------------------|
E--2-2---------2-2------2-2--------2-2-------|

g-----------------------------------------------|
d-------6p4h6----------6p4------6p4h6------6p4--|
a-----------------------------------------------|
E--2h4-4--------2h4-4------4-4--------4-4-------|

g------------------------|
d-------4p2h4-------4p2--|
a------------------------|
E--2-2---------2-2-------|

g--------------------|
d--22222222----------|
a----------44444444--|
E--------------------|

g------------------------------------------------------------------|
d--66666666666666666666666666666644444444444444444444444444444444--|
a------------------------------------------------------------------|
E------------------------------------------------------------------|

g-----------------------------------------------------------------|
d--666666666666666666666666666666444444444444444422222222---------|
a--------------------------------------------------------4442424--|
E-----------------------------------------------------------------|

Please comment and rate as needed! x
Suggest correction
What's this?
You can suggest a correction to this tab. Community and Mods will review your correction and vote to approve or reject it.
comments
We did not receive enough feedback on this tab! Please rate:
print report bad tab
1 2 3 4 5
guest
You may want to rate the tab now too:
select rating
Please do not post tabs as comments. Select "correction" instead!