Oops, an error
Loading. Please wait.

Love Is A Number Bass Tab

863 views 1 this week
3 commentsread comments
1 2 3 4 5
x 4
add to favorites
launch autoscroll
font size
0
reset
guitar tuner
Autoscroll
slow
fast
+/-
esc
set tempo
stop
Help us to improve Ultimate-Guitar.com Take our survey!
×
Author
Artist: White Rose Movement
Song: Love is a Number
Album: Kick

Ace song by an awesome band. I'm surprised how few White Rose Movement tabs there are available.

Anyhoo I'm pretty sure this is accurate. Dead simple really, listen to the song to get 
to the structure. Its all here in black and white really, but its easier to remember if 
know the song well.

G --------------------------------       \
D --------------------------------       |
A 4-4-4-4-4-4-4-4-4-4-4-4-4-4-4-4-       |
E --------------------------------       |
					 |
G -------------------------------        |
D -------------------------------	 |
A 4-4-4-4-4-4-4-4-4-4-4-4-4-6-6-6	 |
E -------------------------------	 |
					  >       x5
G -------------------------------	 |
D -------------------------------	 |
A 2-2-2-2-2-2-2-2-2-2-2-2-2-2-2-2	 |
E -------------------------------	 |
					 |
G -------------------------------        |
D -------------------------------        |
A 2-2-2-2-2-2-2-2-6h7-6h7---6h7\9        |
E -------------------------------        /


G -------------------------------
D -------------------------------
A 4-4-4-4-4-4-4-4-4-4-4-4-4-4-4-4       x2
E -------------------------------
                                        


G ----------------------------------------------------------------|
D --------------------------------7-7-7-7-7-7-7-7-7-7-7-7-7-7-7-7-|
A 9-9-9-9-9-9-9-9-9-9-9-9-9-9-9-9---------------------------------|
E ----------------------------------------------------------------|

G ----------------------------------------------------------------|
D ----------------------------------------------------------------|
A 7-7-7-7-7-7-7-7-7-7-7-7-7-7-7-7-7-7-7-7-7-7-7-7-7-7-7-7-7-7-7-7-|
E ----------------------------------------------------------------|

G ----------------------------------------------------------------|
D --------------------------------7-7-7-7-7-7-7-------------------|
A 9-9-9-9-9-9-9-9-9-9-9-9-9-9-9-9---------------------------------|
E ----------------------------------------------------------------|

G --------------------------------|
D --------------------------------|
A 4-4-4-4-4-4-4-4-4-4-4-4-4-4-4-4-|
E --------------------------------|

G --------------------------------|
D --------------------------------|
A 4-4-4-4-4-4-4-4-4-4-4-4-4-6-6-6-|
E --------------------------------|

G --------------------------------|
D --------------------------------|
A 2-2-2-2-2-2-2-2-2-2-2-2-2-2-2-2-|
E --------------------------------|

G --------------------------------|
D --------------------------------|
A 4-4-4-4-4-4-4-4-4-4-4-4-4-4-4-4-|
E --------------------------------|

G --------------------------------|
D --------------------------------|
A 4-4-4-4-4-4-4-4-4-4-4-4-4-6-6-6-|
E --------------------------------|

G --------------------------------|
D --------------------------------|
A 2-2-2-2-2-2-2-2-2-2-2-2-2-2-2-2-|
E --------------------------------|

G -------------------------------|
D -------------------------------|
A 2-2-2-2-2-2-2-2-6h7-6h7---6h79-|
E -------------------------------|

G --------------------------------|
D --------------------------------|
A 4-4-4-4-4-4-4-4-4-4-4-4-4-4-4-4-|
E --------------------------------|

G --------------------------------|
D --------------------------------|
A 4-4-4-4-4-4-4-4-4-4-4-4-4-6-6-6-|
E --------------------------------|

G --------------------------------|
D --------------------------------|
A 2-2-2-2-2-2-2-2-2-2-2-2-2-2-2-2-|
E --------------------------------|

G ---------------------------------------------------------------------
D ---------------------------------------------------------------------
A 7-7-7-7-7-7-7-7-7-7-7-7-7-7-7-7-9-9-9-9-9-9-9-9-9-9-9-9-9-9-9-9------  x3
E ---------------------------------------------------------------------

G --------------------------------------|
D --------------------------------------|
A 4-4-4-4-4-4-4-4-4-4-4-4-4-4-4-4-------|      x2
E --------------------------------------|

G ----------------------------------------------------------------|
D --------------------------------7-7-7-7-7-7-7-7-7-7-7-7-7-7-7-7-|
A 9-9-9-9-9-9-9-9-9-9-9-9-9-9-9-9---------------------------------|
E ----------------------------------------------------------------|

G ----------------------------------------------------------------|
D ----------------------------------------------------------------|
A 7-7-7-7-7-7-7-7-7-7-7-7-7-7-7-7-7-7-7-7-7-7-7-7-7-7-7-7-7-7-7-7-|
E ----------------------------------------------------------------|

G ----------------------------------------------------------------|
D --------------------------------7-7-7-7-7-7-7-------------------|
A 9-9-9-9-9-9-9-9-9-9-9-9-9-9-9-9---------------------------------|
E ----------------------------------------------------------------|


Bass breaks between 2:46 and comes back in at 3:00 with:

G --------------------------------|
D --------------------------------|
A 4-4-4-4-4-4-4-4-4-4-4-4-4-4-4-4-|
E --------------------------------|

G --------------------------------|
D --------------------------------|
A 4-4-4-4-4-4-4-4-4-4-4-4-4-6-6-6-|
E --------------------------------|

G --------------------------------|
D --------------------------------|
A 2-2-2-2-2-2-2-2-2-2-2-2-2-2-2-2-|
E --------------------------------|

G -------------------------------|
D -------------------------------|
A 2-2-2-2-2-2-2-2-6h7-6h7---6h79-|
E -------------------------------|

G --------------------------------|
D --------------------------------|
A 4-4-4-4-4-4-4-4-4-4-4-4-4-4-4-4-|
E --------------------------------|

G --------------------------------|
D --------------------------------|
A 4-4-4-4-4-4-4-4-4-4-4-4-4-6-6-6-|
E --------------------------------|

G --------------------------------|
D --------------------------------|
A 2-2-2-2-2-2-2-2-2-2-2-2-2-2-2-2-|
E --------------------------------|

G ----------------------------------------------------------------------|
D ----------------------------------------------------------------------|
A 7-7-7-7-7-7-7-7-7-7-7-7-7-7-7-7-9-9-9-9-9-9-9-9-9-9-9-9-9-9-9-9-------|      x4
E ----------------------------------------------------------------------|

G --------------------------------------|
D --------------------------------------|
A 4-4-4-4-4-4-4-4-4-4-4-4-4-4-4-4-------|      x4
E --------------------------------------|

Let me know what you all think! bobthefilterpuppy@gmail.com
Suggest correction
comments
print report bad tab
3 comments total.
0 reply
Arlin 166 Oct 24, 2006 12:11 PM

Awesome tab to a great song
There should be more WRM tabs!!

0 reply
WhiteStripesIII 263 Mar 12, 2007 01:05 PM

good tab!

0 reply
Not Much Chop 10 May 11, 2008 06:55 PM

Ace. Now tab Speed. And pretty much that whole album. XD

guest
You may want to rate the tab now too:
select rating
Wanna post a correction for this tab? Suggest correction