Oops, an error
Loading. Please wait.

Your Woman Bass Tab

version 2
version 2

Whole song

Interactive

4 views 1 this week
no commentswrite comment
1 2 3 4 5
3 more votes to show rating
add to favorites
launch autoscroll
font size
0
reset
guitar tuner
Autoscroll
slow
fast
+/-
esc
set tempo
stop
Help us to improve Ultimate-Guitar.com Take our survey!
×
Author
newg [tm] 45,857
----------------------------------------------------------------------------------------------------
                                      White Town - Your Woman
----------------------------------------------------------------------------------------------------

Album : Women in Technology (1997)
Tempo : 100
E-mail: gwendal.mollo@orange.fr
Tabbed by: newg    (http://profile.ultimate-guitar.com/newg/)

See my guitar pro/powertab/chord for more

[Verse]

G|--0--0-----0----------------|----------------------------|
D|--------------1--1-----1----|--------------3-----4-------|
A|----------------------------|--3--3-----3-----3-----3----|
E|----------------------------|----------------------------| x10

[Chorus]


G|----------------------------|--------------------0--3----|
D|--4--4-----4--3--3-----3----|--1--1-----1--3--1----------|
A|----------------------------|----------------------------|
E|----------------------------|----------------------------| x2

G|--0--0-----0----------------|----------------------------|
D|--------------1--1-----1----|--------------3-----4-------|
A|----------------------------|--3--3-----3-----3-----3----|
E|----------------------------|----------------------------| x14

[Outro]


G |----------------------------|     |----------------------------|
D |--5--------------------8----|     |--5-------------------------|
A |--------------5-------------|     |------------5---------------|
E |----------------------------| x3  |----------------------------|

Suggest correction
Give kudos to tab author, rate the tab!
1 2 3 4 5
comments
print report bad tab
guest
You may want to rate the tab now too:
select rating
Wanna post a correction for this tab? Suggest correction