Oops, an error
Loading. Please wait.

Your Woman Tab

version 2
version 2

Whole song

  • All the part, with capo, complete tab.

Interactive

7 views 3 this week
no commentswrite comment
1 2 3 4 5
3 more votes to show rating
add to favorites
launch autoscroll
font size
0
reset
how to read this tab
guitar tuner
Autoscroll
slow
fast
+/-
esc
set tempo
stop
Help us to improve Ultimate-Guitar.com Take our survey!
×
Author
Difficulty
Capo
newg [tm] 45,819
intermediate
3rd fret
About this tab version
All the part, with capo, complete tab. Was this info helpful? Yes No
----------------------------------------------------------------------------------------------------
                                      White Town - Your Woman
----------------------------------------------------------------------------------------------------

Album : Women in Technology (1997)
Tempo : 100
E-mail: gwendal.mollo@orange.fr
Tabbed by: newg    (http://profile.ultimate-guitar.com/newg/)

See my guitar pro/powertab/chord for more

Capo 3

D#/A# : xxx343

[Intro]

     Em          C              Am          D
e|--0--------3--0-------3---|--0--------3--0--------|
B|-------0----------0-------|-------0-----------0---|
G|--------------------------|-----------------------|
D|--2-----------------------|--------------0--------|
A|--------------3-----------|--0--------------------|
E|--------------------------|-----------------------| x3

[Verse]

    Em                      C                            Am                      D
e|--------------0-----0--0--------------0-----0--0--|--------------0-----0--0--2-----2-----2-----2--|
B|--------0-----0-----0--0--------1-----1-----1--1--|--------1-----1-----1--1--3-----3-----3-----3--|
G|--0-----0-----0-----0--0--0-----0-----0-----0--0--|--2-----2-----2-----2--2--2-----2-----2-----2--|
D|--2-----2-----2-----2--2--2-----2-----2-----2--2--|--2-----2-----2-----2--2--0-----0-----0-----0--|
A|--2-----2-----2-----2--2--3-----3-----3-----3--3--|--0-----0-----0-----0--0-----------------------|
E|--0-----0-----0-----0--0--------------------------|-----------------------------------------------|



End Verse :
(No capo)
    Em                      C                            Am                      D
e|--------5--5-----5--5--3--6--6-----6--------6--8--|-----8--8-----8-----8-----1-----1-----2-----2--|
B|--------------------------------------------------|-----------------------------------------------|
G|--------------------------------------------------|-----------------------------------------------|
D|--------------------------------------------------|-----------------------------------------------|
A|--------------------------------------------------|-----------------------------------------------|
E|--------------------------------------------------|-----------------------------------------------| x2



[Chorus]

    D#/A#       D                C             
e|--3--3--3--3--2--2--2--2----|--0--0--0--0--0--0--0--0----|
B|--4--4--4--4--3--3--3--3----|--1--1--1--1--1--1--1--1----|
G|--3--3--3--3--2--2--2--2----|--0--0--0--0--0--0--0--0----|
D|--x--x--x--x--0--0--0--0----|--2--2--2--2--2--2--2--2----|
A|----------------------------|--3--3--3--3--3--3--3--3----|
E|----------------------------|----------------------------| x2

    Em                      C                            Am                      D
e|--------------0-----0--0--------------0-----0--0--|--------------0-----0--0--2-----2-----2-----2--|
B|--------0-----0-----0--0--------1-----1-----1--1--|--------1-----1-----1--1--3-----3-----3-----3--|
G|--0-----0-----0-----0--0--0-----0-----0-----0--0--|--2-----2-----2-----2--2--2-----2-----2-----2--|
D|--2-----2-----2-----2--2--2-----2-----2-----2--2--|--2-----2-----2-----2--2--0-----0-----0-----0--|
A|--2-----2-----2-----2--2--3-----3-----3-----3--3--|--0-----0-----0-----0--0-----------------------|
E|--0-----0-----0-----0--0--------------------------|-----------------------------------------------| x4



[Bridge]

e|--7-----------7-------------|
B|----------------------------|
G|----------------------------|
D|----------------------------|
A|----------------------------|
E|-----9--9--9-----9--9--9----| x3

[Outro]

e|--0--------------------3----|
B|--------------0-------------|
G|----------------------------|
D|----------------------------|
A|----------------------------|
E|----------------------------| x3

e|--0-------------------------|
B|--------------0-------------|
G|----------------------------|
D|----------------------------|
A|----------------------------|
E|----------------------------| 

Suggest correction
Give kudos to tab author, rate the tab!
1 2 3 4 5
comments
print report bad tab
guest
You may want to rate the tab now too:
select rating
Wanna post a correction for this tab? Suggest correction