Oops, an error
Loading. Please wait.

Cosmic Monsters Inc bass

1,749 views 1 this week
2 commentsread comments
1 2 3 4 5
2 more votes to show rating
add to favorites
×
Save as Personal and add changes to this tab that will be seen only by you. Learn more ›
×
You can save this tab as Personal to edit and correct it or add notes. All changes will be seen only by you. Learn more »
launch autoscroll
font size
0
reset
guitar tuner
edit
Autoscroll
slow
fast
+/-
esc
set tempo
stop
Band- White Zombie
Song- Cosmic Monsters Inc.

Come in at (0:14)   Intro
g------------------------------------------|
d------------------------------------------|
a-------6-5--------------------------------|  X4
e-0-0-6-5-0-0---0-0-6-5---0-3-0-3-0-3------|

Guitar intro again (do nothing)

 Intro riff X4

guitar inrto yet again
              Riff A start at (0:44)
g-----------------------------------------------|
d-----------------------------------------------|
a-----------------------------------------------|
e-0-0-0-3-0-0-5-0-0-0-3-0-0-5-0-0-0-3-0-3-3-5-6-|
second time play it like this
g-----------------------------------------------|
d-----------------------------------------------|
a-----------------------------------------------|
e-0-0-0-3-0-0-5-0-0-0-3-0-0-5-0-0-0-0-0-0-0-0-0-|
               Riff B start at (0:54)
g---------------------------|
d---------------------------| "well, how big is life?"
a---------------------------|
e-3-3/5-0-0-3-3/5-0-0-3-0-6-|
		Riff C start at (1:17)
g--------------------------------------|
d--------------------------------------|    sampled
a-----3----5----6----3--3-5-6----------|"let's turn it on"
e-0-0--0-0--0-0--0-0--0----------------|

Riff B at (1:34) "well, how high is up?"
Riff C at (1:56) "so losely illustrated" but end it like this
g-----------------------------------------|
d-----------------------------------------|
a------3------5-------6-5-3-0-------------|
e-0-0----0-0----0-0--------------6-5-3-0--|
then at (2:40) start this
g-----------------------------------------|
d-----------------------------------------|
a-----------------------------------------|
e-0-0-0-0----------3-5-6------------------|
next, at (2:47) play Riff A thru guitar solo until (3:20)
then play this
g------------------|
d------------------|
a-5-5-5-5-5--5-7-5-| X3	"they come from the bowels of hell"
e------------------|
Then

g---------------------------|
d---------------------------|
a-5-5-5-5-5-7-0-5-0-3-0-1-0-|
e---------------------------|

then Riff B at (3:31) till (3:52)

next, Riff C at (3:52) till (4:20)

then it's that guitar intro do nothing

then play the modified intro at (4:35) something alike,
g-----------------------------------------|
d-----------------------------------------|
a-----------------------------------------|
e--6-5-0-0-0-0--3-5-6-5-3-5-6-5-3-5-6-5---| play this untill the end at (4:52)
Suggest correction
Creating personal tab
Creating personal tab
You can edit any tab online and save it as your Personal.

You can edit, replace or remove any tab part or add personal notes – all changes will be seen only by you.

Personal tabs can be accessed anytime from any device, even offline.
Learn more »
Give kudos to tab author, rate the tab!
1 2 3 4 5
comments
print report bad tab
2 comments total.
0 reply
bdouts 113 Apr 16, 2008 10:43 AM

this is pretty good, but i think the bridge goes something like this


---------------------------------------------------------------
---------------------------------------------------------------
------------3-5-6--------55555--05065-------55555-----56-------
---0-3-5-6-----------------------------------------------------

0 reply
Groove Devil 131 May 10, 2008 01:31 PM

|------------------------------------------|[X2]|----------------------|[Ending]
|------------------------------------------| |----------------------|
|--5-5-5-5-5--0-3-0-5-3--5-5-5-5-5--5-6----| |-0-5---4---3---2------|
|------------------------------------------| |-----6---5---4---3----|

guest
You may want to rate the tab now too:
select rating
Wanna post a correction for this tab? Suggest correction