Oops, an error
Loading. Please wait.

Grindhouse A Go-Go chords

151 views 1 this week
no commentswrite comment
1 2 3 4 5
3 more votes to show rating
add to favorites
×
Save as Personal and add changes to this tab that will be seen only by you. Learn more ›
×
You can save this tab as Personal to edit and correct it or add notes. All changes will be seen only by you. Learn more »
launch autoscroll
font size
0
reset
transpose
0
reset
simplify chords
display chords
guitar tuner
edit
Autoscroll
slow
fast
+/-
esc
set tempo
stop
Author
Difficulty
Strumming
There is no strumming pattern for this song yet. and get +5 IQ
[Intro] 

E5   F5   G#5   G5
E5   F5   A5   G#5


[Intro 2]

E5   F5  E5   E5  E5  F5    G5  G#5  


[Verse1]

E5 E5 F5  E5 E5 F5 E5 E5   F5
Listen to the dream of life
E5                E5     F5  F5
a conversation
E5 E5 F5  E5 E5 F5 E5 E5   F5
Hustle me beneath a spark
E5                E5      F5   G5
flesh or reflection
E5 E5 F5  E5 E5 F5 E5 E5   F5
Faith can't hold insto-matic soul
E5                E5     F5- F5
trapped the light 
E5 E5 F5  E5 E5 F5 E5 E5   F5
A fool for love stand'n still
E5                E5      F5   G5
deep is the night


[Chorus] 

E5                  F5
Jump in the back
E5 E5        F5
a pack attack
E5 E5      F5
Gimme that 
G5    G#5
dig in
E5 E5 F5        E5 E5  F5      E5 E5  G#5 E5 E5 A5
Lethal mind fugitive kind Hustle! 

(2nd time is the same only the last line ends differently)

E5                  F5
Jump in the back
E5 E5        F5
a pack attack
E5 E5      F5
Gimme that 
G5    G#5
dig in
E5 E5 F5        E5 E5  F5      E5 E5  G#5 
Lethal mind fugitive kind Hustle! 


[Instrumental]

A5# A5# A5 G5 F5#


[Verse2]

E5 E5 F5  E5 E5 F5 E5 E5   F5
Steal'n back the past ahead 
E5                E5     F5  F5
that's how I'm roll'n
E5 E5 F5  E5 E5 F5 E5 E5   F5
Trick racer so desperate
E5                E5     F5  F5
that's how I'm living
E5 E5 F5  E5 E5 F5 E5 E5   F5
Dead heat shred the midway air 
E5                E5     F5  F5
I see forever
E5 E5 F5  E5 E5 F5 E5 E5   F5
Drag-O-Rama kick'n in
E5                E5      F5   G5
no say never


[Chorus] 

E5                  F5
Jump in the back
E5 E5        F5
a pack attack
E5 E5      F5
Gimme that 
G5    G#5
dig in
E5 E5 F5        E5 E5  F5      E5 E5  G#5 E5 E5 A5
Lethal mind fugitive kind Hustle! 

E5                  F5
Jump in the back
E5 E5        F5
a pack attack
E5 E5      F5
Gimme that 
G5    G#5
dig in
E5 E5 F5        E5 E5  F5      E5 E5  G#5 
Lethal mind fugitive kind Hustle! 

[Instrumental]

A5# A5# A5 G5 F5#


[Interlude 1]

 
e|--------------------------------------------------------------------|
B|--------------------------------------------------------------------|
G|--------------------------------------------------------------------| x2
D|--------------------------------------------------------------------|
A|------3-0-0-0-0-3-0-0-0-0-6-5-3-0-0-0-0-3-0-0-0-0-0/6ph~------------|
E|--------------------------------------------------------------------|
               PM

   (Lyrics start)
e|--------------------------------------------------------------------|
B|--------------------------------------------------------------------|
G|--------------------------------------------------------------------|
D|--------------------------------------------------------------------| x2
A|-------------------------------------------------0/3ph~-------------|
E|-------6-3-3-3-3-6-3-3-3-3-5-4-6-3-3-3-6-3-3-3-3--------------------|
             PM

crimshaw motherfucker bazooka 5-star cat a howl'n

Kitten got a whip but no escape to bait the prowl'n

yeah!


[Instrumental]

A5 G#5

E5 E5    E5 E5    E5 E5


[Interlude 2] 

Go!   Go!   Go!   Go!   Go!   Go!   Go!   Go!   Go!   Go!   Go!   Go!
e|---------------------------------------------------------------------|
B|---------------------------------------------------------------------|
G|---------------------------------------------------------------------|
D|---------------------------------------------------------------------|
A|-----------------------9-9--9-8-------------------------9-9--9-8-----|
E|--5-6-0-5-6-0-5-6-0----7-7--7-6-----5-6-0-5-6-0-5-6-0---7-7--7-6-----|
                                                                  x2         
e|---------------------------------------------------------------------|
B|---------------------------------------------------------------------|
G|---------------------------------------------------------------------|
D|---------------------------------------------------------------------|
A|---------------------9-9---9-8---------------------9--5-6-7----------|
E|--5-6-0-5-6-0-5-6-0--7-7---7-6--5-6-0-5-6-0-5-6-0--7--3-4-5----------|


[Interlude 3]

(Lyrics start)
e|------------------------------------------------------------|
B|------------------------------------------------------------|
G|------------------------------------------------------------|
D|------------------------------------------------------------| x2 
A|------3-0-0-0-0-3-0-0-0-0-6-5-3-0-0-0-0-3-0-0-0-0-0/6ph~----|
E|------------------------------------------------------------|
               PM

e|------------------------------------------------------------|
B|------------------------------------------------------------|
G|------------------------------------------------------------|
D|------------------------------------------------------------| x2 
A|-------------------------------------------------0/3ph~-----|
E|-------6-3-3-3-3-6-3-3-3-3-5-4-6-3-3-3-6-3-3-3-3------------|
             PM

If hell is like a woman, said "Take me to the fire"  Shot
down! Another desperate love crucifier
Yeah! Boiling out of nowhere - crazyhead decision -
Skintight on the action grind into collision yeah!


[Interlude 4]

e|--------------------------------------------------------------------------|
B|--------------------------------------------------------------------------|
G|----------------------------------------------------------------7~--------|
D|-----------------------------10--9-------------------------7-9------------|
A|--------9-9-------------------8--7----9-9-------------7-9-----------------|
E|----0-0-7-7--7h10-7h10-7h10-----------7-7--------7-10---------------------|


e|---------------------------------------------|
B|---------------------------------------------|
G|---------------------------------------------|
D|---------------------------------------------|
A|--9-9---------12~\----9-9---------7~\--------|
E|--7-7-------0-10~\----7-7------0--5~\--------|

e|----------------------------------------------------------------------------------|
B|----------------------------------------------------------------------------------|
G|-------------------------------------------------------------------7b~~~----------|
D|---------------------------------10---9----------------------7-9------------------|
A|--------9-9-----------------------8---7----9-9----------7-9-----------------------|
E|----0-0-7-7----7h10-7h10-7h10--------------7-7----7-10----------------------------|


[Instrumental]

(as Intro 2)

E5   F5  E5   E5  E5  F5    G5  G#5 


[Verse3]

E5 E5 F5  E5 E5 F5 E5 E5   F5
Breath'n seeped into my head
E5                E5     F5  F5
the gang is bang'n
E5 E5 F5  E5 E5 F5 E5 E5   F5
Pump the creature daddy-o
E5                E5      F5   G5
spring-loaded hang'n

E5 E5 F5  E5 E5 F5 E5 E5   F5
Everything ya always need
E5                E5     F5- F5
right for the taking
E5 E5 F5  E5 E5 F5 E5 E5   F5
Shoot the works the haunted hill
E5                E5      F5   G5
house is a shak'n.


[Outro]

E5   F5  E5   E5   F5


*********************************

| /  slide up
| \  slide down
| h  hammer-on
| p  pull-off
| ~  vibrato

*********************************


Any notes, corrections, suggestions, please point them out in the comments.
Thank you!
WHITE ZOMBIE RULES!!!!!!


            
            
Suggest correction
Creating personal tab
Creating personal tab
You can edit any tab online and save it as your Personal.

You can edit, replace or remove any tab part or add personal notes – all changes will be seen only by you.

Personal tabs can be accessed anytime from any device, even offline.
Learn more »
Give kudos to tab author, rate the tab!
1 2 3 4 5
comments
print report bad tab
guest
You may want to rate the tab now too:
select rating
Wanna post a correction for this tab? Suggest correction