Oops, an error
Loading. Please wait.

Thunder Kiss 65 Tab

version 2
version 2

Whole song

Interactive

92,651 views 216 this week
17 commentsread comments
1 2 3 4 5
excellent!
x 25
add to favorites
launch autoscroll
font size
0
reset
how to read this tab
guitar tuner
Autoscroll
slow
fast
+/-
esc
set tempo
stop
Help us to improve Ultimate-Guitar.com Take our survey!
×
Author
Difficulty
Binbags 5,673
advanced
Band:  White Zombie
Album: La Sexorcisto:Devil Music Vol 1
Song:  Thunder Kiss '65

Copyright (c)  (Warner Bros Music) (1992)
Version 1.0 - (DATE)



.  - palm mute           /  - slide up to
\  - slide down to       ~  - vibrato
h  - hammer on           b  - Bend
p  - pull off            Suffixes for bend
t  - tap                 f  - full bend    h - half bend
ph - pinched harmonic    q  - quarter bend t - tap bend
*  - see comment         ^  - Hold bend    r release bend
x  - Stuccatto           ~  - vibrato bend
,  - slight palm mute    () - ghost note, sustained note
"  - tremolo note        <> - Trill

Tunning E A D G B E
 

 Intro


E---------------------------|
B---------------------------|
G---------------------------|
D---------------------------|
A---------------------------|
E-0--0--0-0--0-0--0--0-0--0-| Rpt 3 X

E----------------------|
B----------------------|
G----------------------|
D----------------------|
A--------------2---1---|
E-0--0--0-0--0---3---2-|

E---------------------------|
B---------------------------|
G---------------------------|
D---------------------------|
A---------------------------|
E-0--0--0-0--0-0--0--0-0--0-| Rpt 3 X

E-----------------------------------|
B-----------------------------------|
G-----------------------------------|
D------------------3-----3----------|
A------------------1-----1--2---1---|
E-0--0--0-0--0-0-0---0-0------3---2-|

 Verse

E---------------------------------------------|
B---------------------------------------------|
G---------------------------------------------|
D---------------------------------------------|
A------------------------------------2---1----|
E-0--0--0-0--0-0--0-0--0-0-0--0-0--0---3---2--| Rpt 4 X

 Chorus

  Guitar 1
E[---------------------------------|
B[----8--------------8-------------|
G[----7--------------7-------------|
D[----6----7-8-9-----6-------------|
A[-2--7----5-6-7--2--7----7---5----|
E[-0--------------0-------5---3----|
 [Guitar 2 with wah
E[-12-12----------12---------------|
B[-15b15b---------15br-------------|
G[----------------------14fbr12----|
D[------------------------------14-|
A[---------------------------------|
E[---------------------------------|

  Guitar 1
E[---------------------------------|
B[----8--------------8-------------|
G[----7--------------7-------------|
D[----6----7-8-9-----6-------------|
A[-2--7----5-6-7--2--7----7---5----|
E[-0--------------0-------5---3----|
 [Guitar 2 ~~          ~~~
E[---------------------------------|
B[---15------7-5---5---------------|
G[-14b-14br12----7-----------------|
D[-------------------7b5-----------|
A[---------------------------------|
E[---------------------------------|

  Guitar 1
E[---------------------------------|
B[----8--------------8-------------|
G[----7--------------7-------------|
D[----6----7-8-9-----6-------------|
A[-2--7----5-6-7--2--7----7---5----|
E[-0--------------0-------5---3----|
 [Guitar 2           
E[---------------------------------|
B[-5-5---7--7-----8-8--8--8--------|
G[-7b7b--9b-9b---10b10b10b10b------|
D[---------------------------------|
A[---------------------------------|
E[---------------------------------|

  Guitar 1
E[---------------------------------|
B[----8--------------8-------------|
G[----7--------------7-------------|
D[----6----7-8-9-----6-------------|
A[-2--7----5-6-7--2--7----7---5----|
E[-0--------------0-------5---3----|
 [Guitar 2           
E[------------------------17fbr----|
B[-12-12-12-12----15fb-------------|
G[-14b14b14b14b--------------------|
D[---------------------------------|
A[---------------------------------|
E[---------------------------------|

 Rpt verse and chorus

 Interlude
             PM    PM    PM
E------------------------------------|
B------------------------------------|
G------------------------------------|
D-2--5--8-\7-------------------------|
A-0--3--6-\5-----5-----7-----5--6-\5-|
E-------------3--3--5--5--3--3--4-\3-| Rpt
           Trem dive       [-PM-]          [-PM-]
E-------------------------------------------------------------------|
B-------------------------------------------------------------------|
G-------------------------------------------------------------------|
D-----------------9---(9)---------2---(2)---------2---(2)---------2-|
A-4----4--3---\---7---(7)---------2---(2)---------2---(2)---------2-|
E-2----2--1---\-------------3--5--0---(0)---3--5--0---(0)---3--5--0-|

 Guitar solo

E--------------------------------------5--7---5--3--3--|
B-5--5--5--5--6--6--6--6-6-6--5--5--5--8b-10b-8b-6b-6b-|
G-7b-7b-7b-7b-8b-8b-8b-8b8b8b-7b-7b-7b-----------------|
D------------------------------------------------------|
A------------------------------------------------------|
E------------------------------------------------------|

E-12-------15-12-------15-12-------15-12-----------------------------|
B----15-12-------15-12-------15-12-------15-12-15-12-----------------|
G----------------------------------------------------14-14-14-14-14b-|
D--------------------------------------------------------------------|
A--------------------------------------------------------------------|
E--------------------------------------------------------------------|
                        ~~~~~~~
E--------------12--15--19-------|
B-12--12---15--15b-18b-22fb-----|
G-14b-14b--17b------------------|
D-------------------------------|
A-------------------------------|
E-------------------------------|

 Backing for guitar solo

E---------------------------------------------|
B---------------------------------------------|
G----9----------------------------------------|
D---------7-8-9---------------/10-10-8--------|
A-2--7----5-6-7--5/8--2--2--3-/8--8--6--9--8--|
E-0--------------3/6--0--0--1-----------7--6--|
                              [PM]    [PM]
E--------------------------------------------|
B--------------------------------------------|
G----9---------------------------------------|
D---------7-8-9------------------------------|
A-2--7----5-6-7--5/8--2--2--3------8------5--|
E-0--------------3/6--0--0--1--0-0-6--0-0-3--| Rpt both riffs.

 3rd Verse
  [PM]     [--PM--]
E-------------------------|
B-------------------------|
G-------------------------|
D-------------------------|
A-------5-----------5-/7--|
E-0--0--3--0-0--0-0-3-/5--| Rpt 3 X

  [PM]     [--PM--]
E-------------------------|
B-------------------------|
G-------------------------|
D-------------------------|
A-------5----------5-4-3--|
E-0--0--3--0-0--0--3-2-1--|

 Rpt above riffs.
 Rpt Chorus with additional guitar

E----------------------------------------------------------15p12----|
B-5--5--5--5--6--6--6--6--5--5--10---10--12----8----12--------------|
G-7b-7b-7b-7b-8b-8b-8b-8b-7b-7b-12b--12b-14b---10b--14b-------------|
D-------------------------------------------------------------------|
A-------------------------------------------------------------------|
E-------------------------------------------------------------------|

  Guitar 1
                                        ~~~~~~~~        ~~~~~~~~
E[----12-15p12----12-15p12----12-15p12-15fb--------------------------|
B[-15----------15----------15---------------------12-15-15b----------|
G[-------------------------------------------------------------------|
D[-------------------------------------------------------------------|
A[-------------------------------------------------------------------|
E[-------------------------------------------------------------------|
 [Guitar 2                                [PM]     [PM]
E[-------------------------------------------------------------------|
B[-------------------------------------------------------------------|
G[-------------------------------------------------------------------|
D[-------------------------------------------------------------------|
A[-2-----------------------5-------------------4-------3-------------|
E[-0-----------------------3---------------0-0-2---0-0-1-------------|

 Guitar 1
    ~~~~~~~~~~~~~~~~                h     h
E[---------------------------------------------|
B[-10----8-------------8-----------------------|
G[---------------------10b--11p9--7-9-9p7-9-9--|
D[---------------------------------------------|
A[---------------------------------------------|
E[---------------------------------------------|
 [Guitar 2
 [       [PM]   [PM]            [PM]    [PM]
E[---------------------------------------------|
B[---------------------------------------------|
G[---------------------------------------------|
D[---------------------------------------------|
A[-2--9------8------7--2----5-------3-------5--|
E[-0--7--0-0-6--0-0-5--0----3---0-0-1---0-0-3--|


 Guitar 1
   with wah  trem dive   trem dive            ~~~~
E[---------------------------------------------------------|
B[-----------------------------7-------6-------------------|
G[----------------------------------------/10-11-11-10b 10-|
D[-4-------3--\--4-------3--\--4-------3-------------------|
A[-4-------3--\--------------------------------------------|
E[---------------------------------------------------------|
 [Guitar 2
E[---------------------------------------------------------|
B[---------------------------------------------------------|
G[---------------------------------------------------------|
D[---------------------------------------------------------|
A[-4-------3-----4-------3-----4-------3-----4-------------|
E[-2----2--1-----2----2--1-----2----2--1-----2----2--1-----|

 Guitar 1
                                                ~~~~~~~~~~~~~~~~~
E[-------------------------------------------------------------------|
B[-------------------------------------------------------------------|
G[-11-10-11-10-11-10-11-10-11-10-11-10-11-10-11-10-------------------|
D[-------------------------------------------------------------------|
A[-------------------------------------------------------------------|
E[-------------------------------------------------------------------|
 [Guitar 2
E[-------------------------------------------------------------------|
B[-------------------------------------------------------------------|
G[-------------------------------------------------------------------|
D[-------------------------------------------------------------------|
A[-------------------------------------------------------------------|
E[-2--1--2--1--2--1--2--1--2--1--2--1--2--1--2--1--------------------|



END

Suggest correction new What's this?
You can suggest a correction to this tab. Community and Mods will review your correction and vote to approve or reject it.
comments
print report bad tab
17 comments total. Showing first comments.
0 reply
dimebag7 1,789 wrote on February 3 2006, 10:41 am

sweet song

0 reply
autumnskyguitar 454 wrote on May 4 2006, 07:07 pm

i think you need some palm muting in the main riff

0 reply
autumnskyguitar 454 wrote on May 21 2006, 08:47 pm

sweet

guest
You may want to rate the tab now too:
select rating
Please do not post tabs as comments. Select "correction" instead!