Oops, an error
Loading. Please wait.

Thunderkiss 65 Tab

version 1
version 1

Whole song

Interactive

31,621 views 21 this week
6 commentsread comments
1 2 3 4 5
accurate
x 12
add to favorites
launch autoscroll
font size
0
reset
how to read this tab
guitar tuner
Autoscroll
slow
fast
+/-
esc
set tempo
stop
Help us to improve Ultimate-Guitar.com Take our survey!
×
Author
Difficulty
intermediate
This is my first tab so please rate considering this fact.  I first heard this song on 
hero and I liked it so i downloaded it, and here i am tabbing it out.  EJOY!

White Zombie
Thunderkiss 65

* PALM MUTE

mr_metallica_jam@yahoo.com if you have any questions or corrections.

INTRO (0:24)
E|---------------------------------------------------------------------|
B|---------------------------------------------------------------------|
G|---------------------------------------------------------------------|
D|---------------------------------------------------------------------|
A|-7--7--7-7--7--7--7--7-7--7--7--7--7-7--7--7--7--7-7--7--7--7--7-7--7|
E|-0--0--0-0--0--0--0--0-0--0--0--0--0-0--0--0--0--0-0--0--0--0--0-0--0|
   *  *  * *  *  *  *  * *  *  *  *  * *  *  *  *  * *  *  *  *  * *  *


E|----------------------------------------|
B|----------------------------------------|
G|----------------------------------------|
D|----------------------------------------|
A|-7--7--7-7--7--7--7--7-7--7--2-----1----|
E|-0--0--0-0--0--0--0--0-0--0-----3-----2-|
   *  *  * *  *  *  *  * *  *


E|---------------------------------------------------------------------|
B|---------------------------------------------------------------------|
G|---------------------------------------------------------------------|
D|---------------------------------------------------------------------|
A|-7--7--7-7--7--7--7--7-7--7--7--7--7-7--7--7--7--7-7--7--7--7--7-7--7|
E|-0--0--0-0--0--0--0--0-0--0--0--0--0-0--0--0--0--0-0--0--0--0--0-0--0|
   *  *  * *  *  *  *  * *  *  *  *  * *  *  *  *  * *  *  *  *  * *  *


E|-------------------------------------------------------|
B|-------------------------------------------------------|
G|-------------------------------------------------------|
D|---------------------------------7-------7-------------|
A|-7--7--7-7--7--7--7--7-7--7------5-------5--2-----1----|
E|-0--0--0-0--0--0--0--0-0--0-0-0-----0-0--------3-----2-|
   *  *  * *  *  *  *  * *  * * *     * *

VERSE1 (0:42)
E|---------------------------------------------------------------|
B|---------------------------------------------------------------|
G|---------------------------------------------------------------|
D|---------------------------------------------------------------|
A|-7--7--7-7--7--7--7--7-7--7--7--7--7-7--7--7--7--7-2-----1-----|
E|-0--0--0-0--0--0--0--0-0--0--0--0--0-0--0--0--0--0----3-----2--|
   *  *  * *  *  *  *  * *  *  *  *  * *  *  *  *  *
   Well sweet little sistas high in hell cheatn on a halo


E|---------------------------------------------------------------|
B|---------------------------------------------------------------|
G|---------------------------------------------------------------|
D|---------------------------------------------------------------|
A|-7--7--7-7--7--7--7--7-7--7--7--7--7-7--7--7--7--7-2-----1-----|
E|-0--0--0-0--0--0--0--0-0--0--0--0--0-0--0--0--0--0----3-----2--|
   *  *  * *  *  *  *  * *  *  *  *  * *  *  *  *  *
  Grind in a odyssey holocaust heart kick on tomorrow


E|---------------------------------------------------------------|
B|---------------------------------------------------------------|
G|---------------------------------------------------------------|
D|---------------------------------------------------------------|
A|-7--7--7-7--7--7--7--7-7--7--7--7--7-7--7--7--7--7-2-----1-----|
E|-0--0--0-0--0--0--0--0-0--0--0--0--0-0--0--0--0--0----3-----2--|
   *  *  * *  *  *  *  * *  *  *  *  * *  *  *  *  *
  Breakdown agony said ecstasy in overdrive

E|---------------------------------------------------------------|
B|---------------------------------------------------------------|
G|---------------------------------------------------------------|
D|---------------------------------------------------------------|
A|-7--7--7-7--7--7--7--7-7--7--7--7--7-7--7--7--7--7-2-----1-----|
E|-0--0--0-0--0--0--0--0-0--0--0--0--0-0--0--0--0--0----3-----2--|
   *  *  * *  *  *  *  * *  *  *  *  * *  *  *  *  *
  She come a riding on the world Thunder kissn 1965

CHORUS (1:00)
E|---------------------------------------|\-- /
B|------------------------------------------- / \
G|------------------------------------------- /  \PLAY 4 TIMES
D|----7------------------7---------------| -- /
A|----9------------3-----9-------------3-|--- /
E|-0-----00000000--5--0-----00000000---5----- /
   *     ********     *     ********
Yeah, wow! five, yeah, wow! Demon-warp is coming alive in 1965 Five, five, yeah!

VERSE2 (1:17)
E|---------------------------------------------------------------|
B|---------------------------------------------------------------|
G|---------------------------------------------------------------|
D|---------------------------------------------------------------|
A|-7--7--7-7--7--7--7--7-7--7--7--7--7-7--7--7--7--7-2-----1-----|
E|-0--0--0-0--0--0--0--0-0--0--0--0--0-0--0--0--0--0----3-----2--|
   *  *  * *  *  *  *  * *  *  *  *  * *  *  *  *  *
  Livin fast and dying young like a endless poetry

E|---------------------------------------------------------------|
B|---------------------------------------------------------------|
G|---------------------------------------------------------------|
D|---------------------------------------------------------------|
A|-7--7--7-7--7--7--7--7-7--7--7--7--7-7--7--7--7--7-2-----1-----|
E|-0--0--0-0--0--0--0--0-0--0--0--0--0-0--0--0--0--0----3-----2--|
   *  *  * *  *  *  *  * *  *  *  *  * *  *  *  *  *
  My motor-psycho nightmare freak out inside of me

E|---------------------------------------------------------------|
B|---------------------------------------------------------------|
G|---------------------------------------------------------------|
D|---------------------------------------------------------------|
A|-7--7--7-7--7--7--7--7-7--7--7--7--7-7--7--7--7--7-2-----1-----|
E|-0--0--0-0--0--0--0--0-0--0--0--0--0-0--0--0--0--0----3-----2--|
   *  *  * *  *  *  *  * *  *  *  *  * *  *  *  *  *
My soul salvation liberation on the drive


E|---------------------------------------------------------------|
B|---------------------------------------------------------------|
G|---------------------------------------------------------------|
D|---------------------------------------------------------------|
A|-7--7--7-7--7--7--7--7-7--7--7--7--7-7--7--7--7--7-2-----1-----|
E|-0--0--0-0--0--0--0--0-0--0--0--0--0-0--0--0--0--0----3-----2--|
   *  *  * *  *  *  *  * *  *  *  *  * *  *  *  *  *
  The power of the blaster move me faster 1965

CHORUS (1:34)
E|---------------------------------------|\-- /
B|------------------------------------------- / \
G|------------------------------------------- /  \PLAY 4 TIMES
D|----7------------------7---------------| -- /
A|----9------------3-----9-------------3-|--- /
E|-0-----00000000--5--0-----00000000---5----- /
   *     ********     *     ********
Yeah, wow! five, yeah, wow! Demon-warp is coming alive in 1965 Five, five, yeah!


E|------------------------------------------------------------------------|
B|------------------------------------------------------------------------|
G|------------------------------------------------------------------------|
D|-2--5----8-7-5----2-2---------2--5----8-7-5----2-2----------------------|
A|-0--3-0--6-5-3-5--0-0-0-5--6--0--3-0--6-5-3-5--0-0-0-5--4------3------2-|
E|---------------3------2-3--4----------------3------2-3--2------1------0-|

E|----------------------------------------------|
B|----------------------------------------------|
G|----------------------------------------------|
D|----------------------------------------------|
A|------2------------------2------------------2-|
E|-3-5--0-------------3-5--0-------------3-5--0-|
   * *                * *                * *


E|---------------------------------------|\-- /
B|------------------------------------------- / \
G|------------------------------------------- /  \PLAY 4 TIMES
D|----7------------------7---------------| -- /
A|----9------------3-----9-------------3-|--- /
E|-0-----00000000--5--0-----00000000---5----- /
   *     ********     *     ********


E|----------------------------------------------------------------------|
B|----------------------------------------------------------------------|
G|----------------------------------------------------------------------|
D|----------------------------------------------------------------------|
A|-------5----------5--7--------5----------5--7--------5----------5--7--|
E|-0--0--3--0--0-0--3--5--0--0--3--0--0-0--3--5--0--0--3--0--0-0--3--5--|
   *  *     *  * *        *  *     *  * *        *  *     *  * *


E|--------------------|
B|--------------------|
G|--------------------|
D|--------------------|
A|------5-------8-7-5-|
E|0--0--3--0--0-6-5-3-|
  *  *     *  *


E|----------------------------------------------------------------------|
B|----------------------------------------------------------------------|
G|----------------------------------------------------------------------|
D|----------------------------------------------------------------------|
A|-------5----------5--7--------5----------5--7--------5----------5--7--|
E|-0--0--3--0--0-0--3--5--0--0--3--0--0-0--3--5--0--0--3--0--0-0--3--5--|
   *  *     *  * *        *  *     *  * *        *  *     *  * *


E|--------------------|
B|--------------------|
G|--------------------|
D|--------------------|
A|------5-------8-7-5-|
E|0--0--3--0--0-6-5-3-|
  *  *     *  *

E|---------------------------------------|\-- /
B|------------------------------------------- / \
G|------------------------------------------- /  \PLAY 3 TIMES
D|----7------------------7---------------| -- /
A|----9------------3-----9-------------3-|--- /
E|-0-----00000000--5--0-----00000000---5----- /
   *     ********     *     ********

E|---------------------------------|
B|---------------------------------|
G|---------------------------------|
D|----7------------------7---------|
A|----9------------3-----9---------|
E|-0-----00000000--5--0-----000000-|
   *     ********     *     ******

VERSE3 (3:10)
E|---------------------------------------------------------------|
B|---------------------------------------------------------------|
G|---------------------------------------------------------------|
D|---------------------------------------------------------------|
A|-7--7--7-7--7--7--7--7-7--7--7--7--7-7--7--7--7--7-2-----1-----|
E|-0--0--0-0--0--0--0--0-0--0--0--0--0-0--0--0--0--0----3-----2--|
   *  *  * *  *  *  *  * *  *  *  *  * *  *  *  *  *


E|---------------------------------------------------------------|
B|---------------------------------------------------------------|
G|---------------------------------------------------------------|
D|---------------------------------------------------------------|
A|-7--7--7-7--7--7--7--7-7--7--7--7--7-7--7--7--7--7-2-----1-----|
E|-0--0--0-0--0--0--0--0-0--0--0--0--0-0--0--0--0--0----3-----2--|
   *  *  * *  *  *  *  * *  *  *  *  * *  *  *  *  *


E|---------------------------------------------------------------|
B|---------------------------------------------------------------|
G|---------------------------------------------------------------|
D|---------------------------------------------------------------|
A|-7--7--7-7--7--7--7--7-7--7--7--7--7-7--7--7--7--7-2-----1-----|
E|-0--0--0-0--0--0--0--0-0--0--0--0--0-0--0--0--0--0----3-----2--|
   *  *  * *  *  *  *  * *  *  *  *  * *  *  *  *  *


E|---------------------------------------------------------------|
B|---------------------------------------------------------------|
G|---------------------------------------------------------------|
D|---------------------------------------------------------------|
A|-7--7--7-7--7--7--7--7-7--7--7--7--7-7--7--7--7--7-2-----1-----|
E|-0--0--0-0--0--0--0--0-0--0--0--0--0-0--0--0--0--0----3-----2--|
   *  *  * *  *  *  *  * *  *  *  *  * *  *  *  *  *

CHORUS (3:27)
E|---------------------------------------|\-- /
B|------------------------------------------- / \
G|------------------------------------------- /  \PLAY 4 TIMES
D|----7------------------7---------------| -- /
A|----9------------3-----9-------------3-|--- /
E|-0-----00000000--5--0-----00000000---5----- /
   *     ********     *     ********

OUTRO (3:44)
E|-----------------------------------------------------------------------|
B|-----------------------------------------------------------------------|
G|-----------------------------------------------------------------------|
D|-----------------------------------------------------------------------|
A|-4--------3--------4--------3--------4--------3--------4--------3----4-|
E|-2--------1--------2--------1--------2--------1--------2--------1----2-|

E|---------------------------------------------------------------|
B|---------------------------------------------------------------|
G|---------------------------------------------------------------|
D|---------------------------------------------------------------|
A|-3----4----3----4----3----4----3----4----3----4----3----4----3-|
E|-1----2----1----2----1----2----1----2----1----2----1----2----1-|
Suggest correction
What's this?
You can suggest a correction to this tab. Community and Mods will review your correction and vote to approve or reject it.
comments
print report bad tab
6 comments total. Showing first comments.
0 reply
nightshade101 204 wrote on March 27 2007, 12:56 pm

dude what about the solo parts and the bit over the chorus other than that its a solid effort

0 reply
wesfield 235 wrote on September 28 2007, 08:44 am

no accurate no solo over chorus

0 reply
saintjimmy777 15 wrote on March 25 2008, 03:20 pm

Where did this chorus riff come from? I can't hear it during the song, only an awesome solo thing (which happens to not behere in addition to several other parts towards end of song).

IS SOMEONE PLANNING ON MAKING A COMPLETELY ACCURATE TAB OR WILL THIS BE THE ONLY ONE AVAILABLE. FOR A POPULAR SONG, THIS IS RIDICULOUS.

guest
You may want to rate the tab now too:
select rating
Please do not post tabs as comments. Select "correction" instead!