Oops, an error
Loading. Please wait.

Thunderkiss 65 tab

version 2
version 2

Whole song

Interactive

15,607 views 6 this week
no commentswrite comment
1 2 3 4 5
x 5
add to favorites
×
Save as Personal and add changes to this tab that will be seen only by you. Learn more ›
×
You can save this tab as Personal to edit and correct it or add notes. All changes will be seen only by you. Learn more »
launch autoscroll
font size
0
reset
how to read this tab
guitar tuner
backing track
0:00
0:00
edit
Autoscroll
slow
fast
+/-
esc
set tempo
stop
Author
-------------------------------------------------------------------------------
                             THUNDERKISS 65  - White Zombie
-------------------------------------------------------------------------------
Tabbed by:Dakota Richards
Email:Drichards_11@yahoo.com

Tuning:Standard(EADGBe)

Palm Mute = .

Intro
E|---------------------------------------------------------------------------------|
B|---------------------------------------------------------------------------------|
G|---------------------------------------------------------------------------------|
D|---------------------------------------------------------------------------------|
A|----------------------------------------------------------------------------2--2-|
E|-0--0--0-0--0-0--0--0-0--0-0--0--0-0--0-0--0--0-0--0-0--0--0-0--0-0--0--0-0--3--1|
   .  .  . .  . .  .  . .  . .  .  . .  . .  .  . .  . .  .  . .  . .  .  . .


E|--------------------------------------------------------------------------------------------|
B|--------------------------------------------------------------------------------------------|
G|--------------------------------------------------------------------------------------------|
D|-------------------------------------------------------------------------------3----3-------|
A|-------------------------------------------------------------------------------1----1--2--1-|
E|-0--0--0-0--0-0--0--0-0--0-0--0--0-0--0-0--0--0-0--0-0--0--0-0--0-0--0--0-0-00---00-----3--2|
   .  .  . .  . .  .  . .  . .  .  . .  . .  .  . .  . .  .  . .  . .  .  . . ..   ..


Verse
e|---------------------------------------------------------------------|
B|---------------------------------------------------------------------|
G|---------------------------------------------------------------------|
D|---------------------------------------------------------------------|
A|----------------------------------------------------------------2--1-|
E|-0--0--0-0--0-0--0--0-0--0-0--0--0-0--0-0--0--0-0--0-0--0--0-0---3--2|
   .  .  . .  . .  .  . .  . .  .  . .  . .  .  . .  . .  .  . .

Chorus
E|------------------------------------------------------------------------------------------|
B|------------------------------------------------------------------------------------------|
G|------------------------------------------------------------------------------------------|
D|----9----------------9---------9------------9-----------9----------------9----------3-----|
A|----7-----------5-7--7---------7------------7--7--5-----7------------5-7-7----------1----5|
E|-0---------000--3-5---------0----------000-----5--3--0----------000--3-5----0----00---00-3|
             ...                         ...                      ...              ..   ..

Brakedown
E|------------------------------------------------------------------------|
B|------------------------------------------------------------------------|
G|------------------------------------------------------------------------|
D|-2--5----8-7-5----2-2---------2--5----8-7-5----2-2----------------------|
A|-0--3-0--6-5-3-5--0-0---5--6--0--3-0--6-5-3-5--0-0---5--6---4----3----2-|
E|---------------3------0-3--4----------------3------0-3--4---2----1----0-|
      . .               .          . .               .


E|----------------------------------------------|
B|----------------------------------------------|
G|----------------------------------------------|
D|----------------------------------------------|
A|------2------------------2------------------2-|
E|-3-5--0-------------3-5--0-------------3-5--0-|
   . .                . .                . .


Verse 2
E|---------------------------------------------------------------------------------------------|
B|---------------------------------------------------------------------------------------------|
G|---------------------------------------------------------------------------------------------|
D|---------------------------------------------------------------------------------------------|
A|-------5-----------5-7--------5-----------5-7--------5-----------5-7--------5-----------5-4-3|
E|-0--0--3-0-0--0-0--3-5--0--0--3-0-0--0-0--3-5--0--0--3-0-0--0-0--3-5--0--0--3--0-0--0-0-3-2-1|
   .  .    . .  . .       .  .    . .  . .       .  .    . .  . .      .   .     . .  . .

Outro
E|-----------------------------------------------------------------------|
B|-----------------------------------------------------------------------|
G|-----------------------------------------------------------------------|
D|-----------------------------------------------------------------------|
A|-4--------3--------4--------3--------4--------3--------4--------3----4-|
E|-2--------1--------2--------1--------2--------1--------2--------1----2-|

E|---------------------------------------------------------------|
B|---------------------------------------------------------------|
G|---------------------------------------------------------------|
D|---------------------------------------------------------------|
A|-3----4----3----4----3----4----3----4----3----4----3----4----3-|
E|-1----2----1----2----1----2----1----2----1----2----1----2----1-|

I havent got the solo but Im working on it.

Lyrics:
Well sweet little sista's high in hell cheat'n on a halo
Grind in a odyssey holocaust heart kick on tomorrow
Breakdown
Agony said "Ecstasy" in overdrive she come a riding on the world
Thunder kiss'n 1965
Yeah, wow! Five, yeah, wow!!
Demon-warp is coming alive in 1965
Five, five, yeah!Livin' fast and dying young like a endless poetry
My motor-psycho nightmare freak out inside of me
My soul salvation liberation on the drive
The power of the blaster move me faster 1965
Yeah, wow! Five, yeah, wow!!
Demon-warp is coming alive in 1965
Five, five, yeah!
Gimme that, gimme that now, now, now, yeah!
Roll'n like a supersonic another fool that gets down on it
Pig sweat a million miles, I got a heart atomic style
I make it look easy, that's what I said
Blast of silence explodes in my head
Yeah, yeah, yeah, gimme that, gimme that now
Step to the moonshine frenzy hail: The Resurrection
What's new pussycat, can you dig the satisfaction
Well, you can't take it with you, but you can! In overdrive
Yeah! Some like it hot and twist'n, 1965
Yeah, wow! Five, yeah, wow!!
Demon-warp is coming alive in 1965
Five, five 

            
            
Suggest correction
Creating personal tab
Creating personal tab
You can edit any tab online and save it as your Personal.

You can edit, replace or remove any tab part or add personal notes – all changes will be seen only by you.

Personal tabs can be accessed anytime from any device, even offline.
Learn more »
comments
print report bad tab
guest
You may want to rate the tab now too:
select rating
Wanna post a correction for this tab? Suggest correction