Oops, an error
Loading. Please wait.

Warp Asylum bass

1,094 views 3 this week
3 commentsread comments
1 2 3 4 5
2 more votes to show rating
add to favorites
×
Save as Personal and add changes to this tab that will be seen only by you. Learn more ›
×
You can save this tab as Personal to edit and correct it or add notes. All changes will be seen only by you. Learn more »
launch autoscroll
font size
0
reset
guitar tuner
edit
Autoscroll
slow
fast
+/-
esc
set tempo
stop
Difficulty
Song: Warp Asylem
Album: Lasexorcisto, Devil Music Vol. 1
Band: White Zombie
Instrument: Bass Guitar
Bassist: Sean Yseult

Version 1.0: I am still working on one part of the song during the guitar solo. If 
has suggestions please email me: groovestorm@gmail.com, thanks.

Standard Tuning (E, A, D, G)

Intro:

|---------9-----9-----9------|[X8]
|-----8-------8-----8---8----|
|-7-7---7---7-----7----------|
|----------------------------|

Verse:
|-------------------------------|[X13]
|-------------------------------|
|---7---5-7---5-7---7-----------|
|-0---0-----0-----0---0-5--3----|

Chorus:
|------------------------|[X5]
|------------------------|
|-----------0-1-----0----|
|-3-0-3-0-3-----0-3------|

Verse [X10]
Chorus[X5]

Bridge:
|-----------------------------|
|-----------------------------|
|-5-7----5-7----5-7----5-7----|
|-----------------------------|

|------------------------|
|------------------------|
|-------5-6-7------------|
|-3-4-5-------5-4-3-0----|

|----------------------------------|
|----------------------------------|
|----------------------------------|
|-0-0--0-0--0-0-0-0-0-0-0-0-0-0----|

Middle Riff: "sail into night, ghost ship a trippin'..."
|----------------------------|
|----------------------------|
|---------7---5-7---5-6-7----|
|-0-0-0-0---0-----0----------|

Chorus[X5]
Verse[X9]


Last Verse: "Underneath the body baby, where what you see is,
a what you, see & what you... GET!"
|----------------------------------------|
|----------------------------------------|
|---7---5-7---5-7---7--------------------|
|-0---0-----0-----0---0-5-3--3-2--2-1----|

End Riff:
|------------------------------------------------|
|------------------------------------------------|
|--------7-5--------5-7--------7-5--------5-7----|
|-0--0-0-----0--0-0-----0--0-0-----0--0-0--------|

***************************************************************************************
* Generated using Power Tab Editor by Brad Larsen - http://powertab.guitarnetwork.org *
***************************************************************************************

            
            
Suggest correction
Creating personal tab
Creating personal tab
You can edit any tab online and save it as your Personal.

You can edit, replace or remove any tab part or add personal notes – all changes will be seen only by you.

Personal tabs can be accessed anytime from any device, even offline.
Learn more »
Give kudos to tab author, rate the tab!
1 2 3 4 5
comments
print report bad tab
3 comments total.
0 reply
Groove Devil 131 Mar 08, 2008 05:04 PM

Hey this is my first tab. I know its not yet complete but maybe this will give someone else the idea of how its done. I still need to complete the rest of it, but this is 90 % of the song. Hope you all like it. This song will hypnotize.

0 reply
Groove Devil 131 Apr 29, 2008 11:51 PM

I don't know if this is right. For some reason this guitar solo kills when I try to hear it.

Guitar Solo: "away..."
|-------------------------|
|-------------------------|
|--------7---7-----5-6-7--|
|-0--0-0---0---0-0--------|

0 reply
Groove Devil 131 May 08, 2008 04:49 PM

This is how the whole song is actually played. I've done work and this is it:

*WARP ASYLUM*

Intro:
|---------9-----9-----9------|[X8]
|-----8-------8-----8---8----|
|-7-7---7---7-----7----------|
|----------------------------|

"Been down yeah, well I look down,
and my, mind blows away..."
|-------------------------------|[X13]
|-------------------------------|
|---7---5-7---5-7---7-----------|
|-0---0-----0-----0---0-5--3----|


"And I said... smooth operator said...
Get up Get up Get out of here..."
|--------------------------|[X5]
|--------------------------|
|--------------------------|
|-3-0--3-5-0-5-6-0-3-5-----|

"Lights band traffic the thunder,
two blocks west of the rest..."
|-------------------------------|[X13]
|-------------------------------|
|---7---5-7---5-7---7-----------|
|-0---0-----0-----0---0-5--3----|

"And I said... smooth operator said...
Get up Get up Get out of here..."
|--------------------------|[X5]
|--------------------------|
|--------------------------|
|-3-0--3-5-0-5-6-0-3-5-----|

Bridge:
|-----------------------------|
|-----------------------------|
|-5-7----5-7----5-7----5-7----|
|-----------------------------|

|--------------------------|
|--------------------------|
|--------------------------|
|-3-3-5--5-5-6--6-5-1-0----|

|------------------------------------|
|------------------------------------|
|------------------------------------|
|-0-0---0-0---0-0-0-0-0-0-0-0-0-0----|

"Sail into night, ghost ship a trippin'..."
|-------------------------------|
|--------------------------5----|
|---------7---5-7---5---7-------|
|-0-0-0-0---0-----0-------------|

Right after:
"Pure is the fear, that breaks away..."

|-----------------------------|
|-----------------------------|
|-----------------------------|
|-0--0-0-0--0-0-0--0-0-0-0----|

|-----------------------------|
|-----------------------------|
|-----------------------------|
|-5--5-5-5--5-5-5--5-5-5-5----|

|----------------------------|
|----------------------------|
|----------------------------|
|-0--0-0-0--0-0-0-0-0-0-0----|

|------------------------------|
|------------------------------|
|-3--3-3-3--3-5--5-5--5-5-5----|
|------------------------------|

|-----------------------------|
|-----------------------------|
|-----------------------------|
|-0--0-0-0--0-0-0--0-0-0-0----|

|-----------------------------|
|-----------------------------|
|-----------------------------|
|-5--5-5-5--5-5-5--5-5-5-5----|

|----------------------------|
|----------------------------|
|----------------------------|
|-0--0-0-0--0-0-0-0-0-0-0----|

|------------------------------|
|------------------------------|
|-3--3-3-3--3-5--5-5--5-5-5----|
|------------------------------|

|-------------------------------|[X4]
|--------------------------5----|
|---------7---5-7---5---7-------|
|-0-0-0-0---0-----0-------------|

|--------------------------|[X5]
|--------------------------|
|--------------------------|
|-3-0--3-5-0-5-6-0-3-5-----|

"Well I walk alone and stare man,
right in the sun..."
|-------------------------------|[X9]
|-------------------------------|
|---7---5-7---5-7---7-----------|
|-0---0-----0-----0---0-5--3----|

Right after: "Underneath the body baby, where what you see is,
a what you, see & what you... GET!"
|----------------------------------------|
|----------------------------------------|
|---7---5-7---5-7---7--------------------|
|-0---0-----0-----0---0-5-3--3-2--2-1----|

Ending:
|------------------------------------------------|
|------------------------------------------------|
|--------7-5--------5-7--------7-5--------5-7----|
|-0--0-0-----0--0-0-----0--0-0-----0--0-0--------|

guest
Wanna post a correction for this tab? Suggest correction