Oops, an error
Loading. Please wait.

Death Becomes Him tab

version 3
version 3

Whole song

Interactive

1,425 views 1 this week
2 commentsread comments
1 2 3 4 5
1 last vote to show rating
add to favorites
×
Save as Personal and add changes to this tab that will be seen only by you. Learn more ›
×
You can save this tab as Personal to edit and correct it or add notes. All changes will be seen only by you. Learn more »
launch autoscroll
font size
0
reset
how to read this tab
guitar tuner
edit
Autoscroll
slow
fast
+/-
esc
set tempo
stop
                           Artist - Whitechapel
                          Album - This Is Exile
                         Tabbed By - Ryan Workman

=Note=
Ive looked over the tabs (including the Guitar Pro's) The rhythm figures just          
giving the sound people are looking for.
Given the guitar pro tabs are based off the writen works, Im tryin to fix this for 
Im about 90% possitive.
So give me some feed back on this one. Tell me if you think the old ones are better and 
shut up if nessesary, Thanks.


x - times played
~ - let ring
\ - slide down
/ - slide up
* - Palm Muting



Lead
E|---------------------------------------------|---------|
B|---------------------------------------------|---------|
G|-----------------------6~--------------------|---------|
D|--------6~-----6~-----------6~-------6~------|---- x10-|
A|-----0~-----0~----0~-------------------------|---------|
E|--4~-----------------4~--------4-5~-----5~---|---------|
A|---------------------------------------------|---------|

Rhythm 1
E|---------------------------------------------|------|
B|---------------------------------------------|------|
G|---------------------------------------------|------|
D|---------------------------------------------|------| x4
A|--4--4--4--4-4--4-4----5---------------------|------|
E|--4--4--4--4-4--4-4--0-5---------------------|------|
A|--4--4--4--4-4--4-4--0-5---------------------|------|
                       *
Rhythm 2
E|---------------------------------------------|------|
B|---------------------------------------------|------|
G|---------------------------------------------|------|
D|---------------------------------------------|------| x4
A|---------------------------------------------|------|
E|--4-4---4-4---4-4---4-5--5--5-5--------------|------|
A|--4-4---4-4---4-4---4-5--5--5-5--------------|------|
    * *   * *   * *   * *  *  * *

All Guitars x8 E|------------------------------------||----------|| B|------------------------------------||----------|| G|------------------------------------||----------|| D|------------------------------------||----------|| A|--6-----7-----------------7---7-7-7-||-6-----7--|| E|--4-4-4-5-4-4-4-4-4-4-4-4-5-4-5-5-5-||-4-4-4-5--|| A|----4-4---4-4-4-4-4-4-4-4---4-------||---4-4----|| * * * * * * * * * * * * * End on 4th and 8th times ||------------------------------|| ||------------------------------|| ||------------------------------|| ||------------------------------|| ||----------------------------0-|| ||-------------------------4--0-|| ||-2-2-2-2-2-2-2-2-5-5-5-5-4--0-||
Rhythm Only E|-------------------------------------|---------| B|-------------------------------------|---------| G|-------------------------------------|---------| D|-------------------------------------|---- x 4-| A|---------------------------------4---|---------| E|------5-----5-----5-----5------5-----|---------| A|--4-4---4-4---4-4---4-4----4-5-------|---------| * * * * * * * * * Lead Guitar ||-Odd Back-Ground Effects-||
Lead E|-------------------------------------|---------| B|-------------------------------------|---------| G|-------------------------------------|---------| D|--11~--11\9--9~-7--7~--7/12\---------|---- x 4-| A|-------------------------------------|---------| E|---9~---9\7--7~-5--5~--5/10\---------|---------| A|-------------------------------------|---------|
All Guitars Untill Fade-Out E|---------------------------------------------| B|---------------------------------------------| G|---------------------------------------------| D|---------------------------------------------| A|--6-----7-----------------7---7-7-7-6-----7--| E|--4-4-4-5-4-4-4-4-4-4-4-4-5-4-5-5-5-4-4-4-5--| A|----4-4---4-4-4-4-4-4-4-4---4---------4-4----| * * * * * * * * * * * * *

            
            
Suggest correction
Creating personal tab
Creating personal tab
You can edit any tab online and save it as your Personal.

You can edit, replace or remove any tab part or add personal notes – all changes will be seen only by you.

Personal tabs can be accessed anytime from any device, even offline.
Learn more »
Give kudos to tab author, rate the tab!
1 2 3 4 5
comments
print report bad tab
2 comments total.
0 reply
yell0hfrend 322 Oct 28, 2010 08:47 AM

|---------------------------------------------|------|
B|---------------------------------------------|------|
G|---------------------------------------------|------|
D|---------------------------------------------|------| x4
A|--4--4--4--4-4--4-4----5---------------------|------|
E|--4--4--4--4-4--4-4--2-5---------------------|------|
A|--4--4--4--4-4--4-4--2-5---------------------|------|
*
Rhythm 2
E|---------------------------------------------|------|
B|---------------------------------------------|------|
G|---------------------------------------------|------|
D|---------------------------------------------|------| x4
A|---------------------------------------------|------|
E|--4-4---4-4---4-4---2-5--5--5-5--------------|------|
A|--4-4---4-4---4-4---2-5--5--5-5--------------|------|
* * * * * * * * * * *

other than that, perfecto

+1 reply
minkar_man72 275 Dec 21, 2011 07:57 AM

E|---------------------------------------------|------|
B|---------------------------------------------|------|
G|---------------------------------------------|------|
D|---------------------------------------------|------| x4
A|--7--7--7--7-7--7-7----5---------------------|------|
E|--4--4--4--4-4--4-4--2-5---------------------|------|
A|--4--4--4--4-4--4-4--2-5---------------------|------|

All Guitars x8
E|------------------------------------|
B|------------------------------------|
G|------------------------------------|
D|------------------------------------|
A|--6-----7-----------------7---7-7---|
E|--4-4-4-5-5-5-5-5-5-5-5-5-5-5-5-5---|
A|--4-4-4-4-4-4-4-4-4-4-4-4-4-4-4-4---|
* * * * * * * * * * *
play this at the end too

guest
You may want to rate the tab now too:
select rating
Wanna post a correction for this tab? Suggest correction