Oops, an error
Loading. Please wait.

Devirgination Studies tab

version 1
version 1

Whole song

Interactive

7,361 views 3 this week
2 commentsread comments
1 2 3 4 5
1 last vote to show rating
add to favorites
×
Save as Personal and add changes to this tab that will be seen only by you. Learn more ›
×
You can save this tab as Personal to edit and correct it or add notes. All changes will be seen only by you. Learn more »
launch autoscroll
font size
0
reset
how to read this tab
guitar tuner
edit
Autoscroll
slow
fast
+/-
esc
set tempo
stop
Author
Whitechapel
Devirgination Studies
Drop A
*=Pinch Harmonic
.=Palm Mute
"=Tremolo Pick
~=Hold Note(s)
p=Pull Off

I do not take any credit for this tab, give credit to "c.o.c.-yeah" for the first
half of the tab, and "63Dylan63" for the second half.  I am putting these tabs together
because it was annoying for me to learn the song with two different tabs.


|---------------------------------|
|---------------------------------|
|---------------------------------|
|---------------------------------| 1st, 3rd, 5th, 7th time
|---------------------------------|
|-2-----2p1-----------5---5-4-2-1-|
|---4-2-----1-2-4-2-1---4---------|
    . .     . . . . .   .

|---------------------------------|
|---------------------------------|
|---------------------------------|
|---------------------------------| 2nd, 4th, 6th, 8th time
|---------------------------------|
|-2-----2p1-----------------------|
|---4-2-----1-2-4-555-444-555-444-|
    . .     . . . ... ... ... ...

|---------|
|---------|
|---------|
|---------| 1x
|---------|
|-2-5-4-1-|
|---------|


|-------------------------------------------------|
|-------------------------------------------------|
|-palm mute triplets 3rd time---------------------|
|-------------------------------------------------| 3x
|----333222-------------------333222-------7----3-|
|-222------555444555222111-222------555-55-5-11-1-|
|---------------------------------------55---11---|
                                        ..   ..

|---------------------------------------------------------------------|
|---------------------------------------------------------------------|
|---------------------------------------------------------------------|
|---------------------------------------------------------------------| 1x
|----333222-------------------333222-------7----3----6----3----4----3-|
|-222------555444555222111-222------555-55-5-11-1-44-4-11-1-22-2-11-1-|
|---------------------------------------55---11---44---11---22---11---|
  ..................................... ..   ..   ..   ..   ..   ..

|------------------------|
|------------------------|
|------------------------|
|------------------------| 4x
|-4----4------------3----|
|-2-22-2-22-2\1-111-1-11-|
|---33---33-----222---22-|
    ..   ..     ...   ..

|------------|     |--------------------|
|------------|     |--------------------|
|------------|     |--------------------|
|------------| 4x  |--------------------| 4x
|------------|     |--------------------|
|-444--111---|     |-444------111-------|
|----12---21-|     |----111222---222111-|
     ..   ..

|------------|
|------------|
|------------|
|------------| 1x
|-4~-5~-2~-1-|
|-4~-5~-2~-1-|
|-4~-5~-2~-1-|

|-------------------------|
|-------------------------|
|-------------------------|
|-------------------------| breakdown
|-------------------------|
|-0-0-0-0-0---0-0-0-0-0-0-|
|-1-1-1-1-1---1-1-1-1-1-1-|
  . . . . .   . . . . . .

|----------|     |---------------------------------------------|
|----------|     |---------------------------------------------|
|----------|     |---------------------------------------------|
|----------| 1x  |---------------------------------------------| 2x
|-0~-------|     |---------------------------------------------|
|-0~-slide-|     |-0----8-7-5-4----5-4-1-0----8-7-5-4----1-1-1-|
|-0~-------|     |-0-00-8-7-5-4-00-5-4-1-0-00-8-7-5-4-00-1-1-1-|
                     ..     .   ..     .   ..     .   ..
 
|---------------------------------------------|
|---------------------------------------------|
|---------------------------------------------|
|---------------------------------------------| 2x
|---------------------------------------------|
|---------------------------------------------|
|-0-00-8-7-5-4-00-5-4-1-0-00-8-7-5-4-00-1-1-1-|


Gtr 1
|-----------------|
|-----------------|
|-----------------|
|-----------------|
|0-4-1-0-5-2-0----|
|0-4-1-0-5-2-0-4*-|
 . . . . . . .

All Gtrs
|--------------------------------|
|--------------------------------| x2
|--------------------------------|
|--------------------------------|
|------------------------------4-|
|0-4-1-0-5-2-0-4-0-4-1-0-5-2-0---|
 " " " " " " " " " " " " " " " "

Gtr 1
|----------------------------------|
|----------------------------------|
|----------------------------------|
|----------------------------------|
|0-4-1-0-5-2-0----0-4-1-0-5-2-0-4*-|
|0-4-1-0-5-2-0-4*-0-4-1-0-5-2-0----|
 . . . . . . .    . . . . . . .    |  x2
Gtrs 2&3                           |
|----------------------------------|
|----------------------------------|
|----------------------------------|
|----------------------------------|
|0-----0---0-0----0-----0---0-0----|
|0-----0---0-0----0-----0---0-0----|
 .     .   . .    .     .   . .

All Gtrs
|----------------------------------|
|----------------------------------| x2
|----------------------------------|
|----------------------------------|
|0-4-1-0-5-2-0----0-4-1-0-5-2-0-4*-|
|0-4-1-0-5-2-0-4*-0-4-1-0-5-2-0----|
 . . . . . . .    . . . . . . .

All Gtrs
(This is the riff he told me, again, it may be a little off.)
|----------------|
|----------------| x4
|----------------|
|----------------|
|0-4-1-0-5-2-1-0-|
|0-4-1-0-5-2-1-0-|
 . . . . . . .

Gtr 1 plays this after 2nd and 4th time of the above.
(I'm not sure on this one, but I think it's close.)
|----------------------|
|----------------------|
|----------------------|
|----------------------|
|----------------------|
|2--1--2-2-4-4-4-4-2-1-|

All Gtrs
|-------|
|-------|
|-------|
|-------|
|-0-0-0-|
|-1-1-1-|
  . . .

            
            
Suggest correction
Creating personal tab
Creating personal tab
You can edit any tab online and save it as your Personal.

You can edit, replace or remove any tab part or add personal notes – all changes will be seen only by you.

Personal tabs can be accessed anytime from any device, even offline.
Learn more »
Give kudos to tab author, rate the tab!
1 2 3 4 5
comments
print report bad tab
2 comments total.
+2 reply
Hib3rnian 124 Oct 08, 2009 03:08 PM

this looks fun to play, I can't wait to get a 7-string :/

0 reply
Hyks97 838 May 01, 2011 01:20 PM

Hib3rnian, you can just do what i do, drop your E to an A, drop your A to an E, drop your D to an A and drop your G to and D :)

guest
You may want to rate the tab now too:
select rating
Wanna post a correction for this tab? Suggest correction