Oops, an error
Loading. Please wait.

Ear To Ear tab

version 2
version 2

Whole song

Interactive

1,361 views 1 this week
no commentswrite comment
1 2 3 4 5
2 more votes to show rating
add to favorites
×
Save as Personal and add changes to this tab that will be seen only by you. Learn more ›
×
You can save this tab as Personal to edit and correct it or add notes. All changes will be seen only by you. Learn more »
launch autoscroll
font size
0
reset
how to read this tab
guitar tuner
edit
Autoscroll
slow
fast
+/-
esc
set tempo
stop
   Ear To Ear                                    


                                                                     Whitechapel
Dropped A tuning
CATCH THE RYTHM!


       PM PM PM                                                  PM  
       E  E  E  S S S S S S S S S S    S S E   E   E  E   E   E  E   
B ||--------------------------------|-------------------------------|
F#||--------------------------------|-------------------------------|
D ||*-------------------------------|-------------------------------|
A ||*-------------------------------|-------------------------------|
E ||---0--0--0--6-6-6-6-6-6-5-5-5-5-|--5-5-----------------------0--|
A ||---0--0--0----------------------|------1h--4p--1--2h--5p--2--0--|


  PM PM PM      PM         PM PM PM                      
  E  E  Q    E  Q    E     E  E  E  S S S S S S S S S S  
------------------------|-------------------------------|
------------------------|-------------------------------|
------------------------|-------------------------------|
------------------------|-------------------------------|
--0--0--4----L--1----L--|--0--0--0--6-6-6-6-6-6-5-5-5-5-|
--0--0--4----L--1----L--|--0--0--0----------------------|


                            PM    PM PM      PM   PM      
  S S E   E   E  E   E   E  E     E  E  Q    Q    Q       
-------------------------------|------------------------||
-------------------------------|------------------------||
-------------------------------|-----------------------*||
-------------------------------|-----------------------*||
--5-5-----------------------0--|--0--0--5----4----1-----||
------1h--4p--1--2h--5p--2--0--|--0--0--5----4----1-----||


  PM PM PM PM PM                 PM PM PM PM PM PM PM PM  
  E  E  E  E  E  S  S E  E       E  E  E  E  E  E  E  E   
----------------------------||---------------------------|
----------------------------||---------------------------|
----------------------------||*--------------------------|
----------------------7-----||*--------------------------|
--5--4--0--1--0--5h-6----5--||---------------------------|
--5--4--0--1--0-------------||---4--2--1--0--1--2--1--0--|


  PM PM PM PM PM PM PM PM    PM PM PM PM PM PM PM PM         PM   PM           
  E  E  E  E  E  E  E  E     E  E  E  E  E  E  E  E     Q    Q    Q    Q       
--------------------------|--------------------------|-----------------------||
--------------------------|--------------------------|-----------------------||
--------------------------|--------------------------|----------------------*||
--------------------------|--------------------------|----------------------*||
--------------------------|--------------------------|--1--------------1-----||
--4--2--1--0--1--2--1--0--|--4--2--1--0--1--2--1--0--|-------4----2----------||


  PM   PM   PM   PM        PM PM PM PM PM PM PM PM    PM PM PM PM PM PM PM PM  
  Q    Q    Q    Q         E  E  E  E  E  E  E  E     E  E  E  E  E  E  E  E   
----------------------||---------------------------|--------------------------|
----------------------||---------------------------|--------------------------|
----------------------||*--------------------------|--------------------------|
----------------------||*--------------------------|--------------------------|
--5----4----2----1----||---------------------------|--------------------------|
--5----4----2----1----||---4--2--1--0--1--2--1--0--|--4--2--1--0--1--2--1--0--|


  PM PM PM PM PM PM PM PM         PM   PM             PM   PM   PM   PM    
  E  E  E  E  E  E  E  E     Q    Q    Q    Q         Q    Q    Q    Q     
--------------------------|-----------------------||----------------------|
--------------------------|-----------------------||----------------------|
--------------------------|----------------------*||----------------------|
--------------------------|----------------------*||----------------------|
--------------------------|--1--------------1-----||--5----4----2----0----|
--4--2--1--0--1--2--1--0--|-------4----2----------||--5----4----2----0----|


  PM        PM             PM   PM   PM   PM      PM        PM   PM    
  Q    Q    Q    Q         Q    Q    Q    Q       Q    Q    Q    Q     
----------------------||-----------------------|----------------------|
----------------------||-----------------------|----------------------|
----------------------||*----------------------|----------------------|
----------------------||*----------------------|----------------------|
--1---------1---------||---0----1----2----4----|--1---------2----4----|
--1---------1---------||---0----1----2----4----|--1---------2----4----|


  PM        PM   PM      PM        PM             PM        PM                 
  Q    Q    Q    Q       Q    Q    Q    Q         Q    Q    Q    Q             
----------------------|-----------------------||----------------------|-------|
----------------------|-----------------------||----------------------|-------|
----------------------|----------------------*||----------------------|-------|
----------------------|----------------------*||----------------------|-------|
--1---------2----4----|--1---------1----------||--1---------1---------|-------|
--1---------2----4----|--1---------1----------||--1---------1---------|-------|


    S S S S S S S S S S S S S S S S    S S S S S S S S S S S S S S S S  
|-----------------------------------|----------------------------------|
|-----------------------------------|----------------------------------|
|*----------------------------------|----------------------------------|
|*----------------------------------|----------------------------------|
|-----------------------------------|----------------------------------|
|---0-0-0-0-0-0-0-0-2-2-2-2-4-4-4-4-|--1-1-1-1-1-1-1-1-1-1-1-1-1-1-1-1-|


  S S S S S S S S S S S S S S S S    S S S S S S S S S S S S S S S S    
----------------------------------|-----------------------------------||
----------------------------------|-----------------------------------||
----------------------------------|----------------------------------*||
----------------------------------|----------------------------------*||
----------------------------------|-----------------------------------||
--1-1-1-1-1-1-1-1-1-1-1-1-1-1-1-1-|--1-1-1-1-1-1-1-1-1-1-1-1-1-1-1-1--||


            PM   PM                                            
   H        Q    Q       W                   W                 
----------------------|-------------------|-------------------|
----------------------|-------------------|-------------------|
*---------------------|-------------------|-------------------|
*---------------------|-------------------|-------------------|
---0--------2----4----|--1----------------|--L----------------|
---0--------2----4----|--1----------------|--L----------------|


  W                 8x  W                   W                 
--------------------||-------------------|-------------------|
--------------------||-------------------|-------------------|
-------------------*||-------------------|-------------------|
-------------------*||-------------------|-------------------|
--L-----------------||--0----------------|--L----------------|
--L-----------------||--1----------------|--L----------------|


    PM   PM                PM PM PM PM PM             PM   PM PM       PM PM  
    Q    Q    Q    Q       E  E  E  E  E  E  E  E     Q    E  E  E  E  E  E   
|-----------------------|--------------------------|-------------------------|
|-----------------------|--------------------------|-------------------------|
|*----------------------|--------------------------|-------------------------|
|*----------------------|--------------------------|-------------------------|
|---0----0----L----L----|--0--0--0--0--0--L--L--L--|--0----0--0--L--L--0--0--|
|---1----1--------------|--1--1--1--1--1-----------|--1----1--1--------1--1--|


  PM PM PM               PM   PM                PM PM PM PM PM           
  E  E  E  E  E  E   3x  Q    Q    Q    Q       E  E  E  E  E  E  E  E   
---------------------||----------------------|--------------------------|
---------------------||----------------------|--------------------------|
--------------------*||----------------------|--------------------------|
--------------------*||----------------------|--------------------------|
--0--0--0--L--L--L---||--0----0----L----L----|--0--0--0--0--0--L--L--L--|
--1--1--1------------||--1----1--------------|--1--1--1--1--1-----------|


                  PM      PM   PM   PM   PM           PM PM    PM PM    PM  
  Q    E  Q    E  Q       Q    Q    Q    Q         E  E  E  E  E  E  E  E   
-----------------------|----------------------||---------------------------|
-----------------------|----------------------||---------------------------|
-----------------------|----------------------||*--------------------------|
-----------------------|----------------------||*--------------------------|
--5----L--4----L--0----|--4----2----1----0----||---5--------4--------5-----|
--5----L--4-------0----|--4----2----1----0----||------0--0-----0--0-----0--|


  PM    PM PM    PM PM       PM PM    PM PM    PM PM  
  E  E  E  E  E  E  E  E     E  E  E  E  E  E  E  E   
--------------------------|--------------------------|
--------------------------|--------------------------|
--------------------------|--------------------------|
--------------------------|--------------------------|
-----4--------5--------4--|--------5--------4--------|
--0-----0--0-----0--0-----|--0--0-----0--0-----0--0--|


     PM PM     PM PM    PM    PM    PM PM    PM PM     
  E  E  E   E  E  E  E  E     E  E  E  E  E  E  E  E   
---------------------------|--------------------------|
---------------------------|--------------------------|
---------------------------|--------------------------|
---------------------------|--------------------------|
--8--------10--------8-----|-----7--------5--------8--|
-----8--8------8--8-----8--|--8-----8--8-----5--5-----|


  PM PM    PM PM    PM PM                                       
  E  E  E  E  E  E  E  E   4x   S S S S S S S S S S S S E  S S  
---------------------------||----------------------------------|
---------------------------||----------------------------------|
--------------------------*||*---------------------------------|
--------------------------*||*---------------------------------|
--------7--------7---------||----------------------------------|
--5--5-----7--7-----7--7---||---0-0-0-0-0-0-0-0-0-0-0-0-0------|


  S S S S S S S S E  E  E  E     S S S S S S S S S S S E  S S S    
------------------------------|----------------------------------||
------------------------------|----------------------------------||
------------------------------|---------------------------------*||
------------------------------|---------------------------------*||
------------------------------|----------------------------------||
--0-0-0-0-0-0-0-0-0--------0--|--------0-0-0-0-0-0-0-0-0---------||


   PM PM PM PM PM PM PM PM PM PM PM PM PM      
   S  S  S  S  S  S  S  S  S  S  S  S  E  S S  
----------------------------------------------|
----------------------------------------------|
*---------------------------------------------|
*---------------------------------------------|
----------------------------------------------|
---0--0--0--0--0--0--0--0--0--0--0--0--0------|


  PM PM PM PM PM PM PM PM PM       PM  
  S  S  S  S  S  S  S  S  E  E  E  E   
--------------------------------------|
--------------------------------------|
--------------------------------------|
--------------------------------------|
--------------------------------------|
--0--0--0--0--0--0--0--0--0--------0--|


        PM PM PM PM PM PM PM PM PM          
  S S S S  S  S  S  S  S  S  S  E  S S S    
------------------------------------------||
------------------------------------------||
-----------------------------------------*||
-----------------------------------------*||
------------------------------------------||
--------0--0--0--0--0--0--0--0--0---------||


   PM PM PM PM PM PM PM PM PM PM PM PM PM      
   S  S  S  S  S  S  S  S  S  S  S  S  E  S S  
----------------------------------------------|
----------------------------------------------|
*---------------------------------------------|
*---------------------------------------------|
----------------------------------------------|
---0--0--0--0--0--0--0--0--0--0--0--0--0------|


  PM PM PM PM PM PM PM PM PM       PM  
  S  S  S  S  S  S  S  S  E  E  E  E   
--------------------------------------|
--------------------------------------|
--------------------------------------|
--------------------------------------|
--------------------------------------|
--0--0--0--0--0--0--0--0--0--------0--|


        PM PM PM PM PM PM PM PM PM          
  S S S S  S  S  S  S  S  S  S  E  S S S  4x
------------------------------------------||
------------------------------------------||
-----------------------------------------*||
-----------------------------------------*||
------------------------------------------||
--------0--0--0--0--0--0--0--0--0---------||


  PM PM PM PM PM PM PM PM PM PM PM PM PM      
  S  S  S  S  S  S  S  S  S  S  S  S  E  S S  
---------------------------------------------|
---------------------------------------------|
---------------------------------------------|
---------------------------------------------|
---------------------------------------------|
--0--0--0--0--0--0--0--0--0--0--0--0--0------|


  PM PM PM PM PM PM PM PM PM       PM  
  S  S  S  S  S  S  S  S  E  E  E  E   
--------------------------------------|
--------------------------------------|
--------------------------------------|
--------------------------------------|
--------------------------------------|
--0--0--0--0--0--0--0--0--0--------0--|


        PM PM PM PM PM PM PM PM PM        
  S S S S  S  S  S  S  S  S  S  E  S S S  
-----------------------------------------|
-----------------------------------------|
-----------------------------------------|
-----------------------------------------|
-----------------------------------------|
--------0--0--0--0--0--0--0--0--0--------|


  PM PM PM PM PM PM PM PM PM PM PM PM PM      
  S  S  S  S  S  S  S  S  S  S  S  S  E  S S  
---------------------------------------------|
---------------------------------------------|
---------------------------------------------|
---------------------------------------------|
---------------------------------------------|
--0--0--0--0--0--0--0--0--0--0--0--0--0------|


  PM PM PM PM PM PM PM PM PM       PM  
  S  S  S  S  S  S  S  S  E  E  E  E   
--------------------------------------|
--------------------------------------|
--------------------------------------|
--------------------------------------|
--------------------------------------|
--0--0--0--0--0--0--0--0--0--------0--|


        PM PM PM PM PM PM PM PM PM        
  S S S S  S  S  S  S  S  S  S  E  S S S  
-----------------------------------------|
-----------------------------------------|
-----------------------------------------|
-----------------------------------------|
-----------------------------------------|
--------0--0--0--0--0--0--0--0--0--------|


  PM PM PM PM PM PM PM PM PM PM PM PM PM      
  S  S  S  S  S  S  S  S  S  S  S  S  E  S S  
---------------------------------------------|
---------------------------------------------|
---------------------------------------------|
---------------------------------------------|
---------------------------------------------|
--0--0--0--0--0--0--0--0--0--0--0--0--0------|


  PM PM PM PM PM PM PM PM PM       PM  
  S  S  S  S  S  S  S  S  E  E  E  E   
--------------------------------------|
--------------------------------------|
--------------------------------------|
--------------------------------------|
--------------------------------------|
--0--0--0--0--0--0--0--0--0--------0--|


        PM PM PM PM PM PM PM PM PM        
  S S S S  S  S  S  S  S  S  S  E  S S S  
-----------------------------------------|
-----------------------------------------|
-----------------------------------------|
-----------------------------------------|
-----------------------------------------|
--------0--0--0--0--0--0--0--0--0--------|


  PM PM PM PM PM PM PM PM PM PM PM PM PM      
  S  S  S  S  S  S  S  S  S  S  S  S  E  S S  
---------------------------------------------|
---------------------------------------------|
---------------------------------------------|
---------------------------------------------|
---------------------------------------------|
--0--0--0--0--0--0--0--0--0--0--0--0--0------|


  PM PM PM PM PM PM PM PM PM       PM  
  S  S  S  S  S  S  S  S  E  E  E  E   
--------------------------------------|
--------------------------------------|
--------------------------------------|
--------------------------------------|
--------------------------------------|
--0--0--0--0--0--0--0--0--0--------0--|


        PM PM PM PM PM PM PM PM PM        
  S S S S  S  S  S  S  S  S  S  E  S S S  
-----------------------------------------|
-----------------------------------------|
-----------------------------------------|
-----------------------------------------|
-----------------------------------------|
--------0--0--0--0--0--0--0--0--0--------|


  PM PM PM PM PM PM PM PM PM PM PM PM PM      
  S  S  S  S  S  S  S  S  S  S  S  S  E  S S  
---------------------------------------------|
---------------------------------------------|
---------------------------------------------|
---------------------------------------------|
---------------------------------------------|
--0--0--0--0--0--0--0--0--0--0--0--0--0------|


  PM PM PM PM PM PM PM PM PM       PM  
  S  S  S  S  S  S  S  S  E  E  E  E   
--------------------------------------|
--------------------------------------|
--------------------------------------|
--------------------------------------|
--------------------------------------|
--0--0--0--0--0--0--0--0--0--------0--|


        PM PM PM PM PM PM PM PM PM        
  S S S S  S  S  S  S  S  S  S  E  S S S  
-----------------------------------------|
-----------------------------------------|
-----------------------------------------|
-----------------------------------------|
-----------------------------------------|
--------0--0--0--0--0--0--0--0--0--------|


  PM PM PM PM PM PM PM PM PM PM PM PM PM      
  S  S  S  S  S  S  S  S  S  S  S  S  E  S S  
---------------------------------------------|
---------------------------------------------|
---------------------------------------------|
---------------------------------------------|
---------------------------------------------|
--0--0--0--0--0--0--0--0--0--0--0--0--0------|


  PM PM PM PM PM PM PM PM PM       PM  
  S  S  S  S  S  S  S  S  E  E  E  E   
--------------------------------------|
--------------------------------------|
--------------------------------------|
--------------------------------------|
--------------------------------------|
--0--0--0--0--0--0--0--0--0--------0--|


        PM PM PM PM PM PM PM PM PM        
  S S S S  S  S  S  S  S  S  S  E  S S S  
-----------------------------------------|
-----------------------------------------|
-----------------------------------------|
-----------------------------------------|
-----------------------------------------|
--------0--0--0--0--0--0--0--0--0--------|


  PM PM PM PM PM PM PM PM PM PM PM PM PM      
  S  S  S  S  S  S  S  S  S  S  S  S  E  S S  
---------------------------------------------|
---------------------------------------------|
---------------------------------------------|
---------------------------------------------|
---------------------------------------------|
--0--0--0--0--0--0--0--0--0--0--0--0--0------|


  PM PM PM PM PM PM PM PM PM       PM  
  S  S  S  S  S  S  S  S  E  E  E  E   
--------------------------------------|
--------------------------------------|
--------------------------------------|
--------------------------------------|
--------------------------------------|
--0--0--0--0--0--0--0--0--0--------0--|


        PM PM PM PM PM PM PM PM PM        
  S S S S  S  S  S  S  S  S  S  E  S S S  
-----------------------------------------|
-----------------------------------------|
-----------------------------------------|
-----------------------------------------|
-----------------------------------------|
--------0--0--0--0--0--0--0--0--0--------|


  PM PM PM PM PM PM PM PM PM PM PM PM PM      
  S  S  S  S  S  S  S  S  S  S  S  S  E  S S  
---------------------------------------------|
---------------------------------------------|
---------------------------------------------|
---------------------------------------------|
---------------------------------------------|
--0--0--0--0--0--0--0--0--0--0--0--0--0------|


  PM PM PM PM PM PM PM PM PM       PM  
  S  S  S  S  S  S  S  S  E  E  E  E   
--------------------------------------|
--------------------------------------|
--------------------------------------|
--------------------------------------|
--------------------------------------|
--0--0--0--0--0--0--0--0--0--------0--|


        PM PM PM PM PM PM PM PM PM                                          
  S S S S  S  S  S  S  S  S  S  E  S S S    S S S S S S S S S S S S E  S S  
-----------------------------------------|---------------------------------|
-----------------------------------------|---------------------------------|
-----------------------------------------|---------------------------------|
-----------------------------------------|---------------------------------|
-----------------------------------------|---------------------------------|
--------0--0--0--0--0--0--0--0--0--------|--0-0-0-0-0-0-0-0-0-0-0-0-0------|


  S S S S S S S S E  E  E  E     S S S S S S S S S S S E  S S S   
------------------------------|---------------------------------||
------------------------------|---------------------------------||
------------------------------|---------------------------------||
------------------------------|---------------------------------||
------------------------------|---------------------------------||
--0-0-0-0-0-0-0-0-0--------0--|--------0-0-0-0-0-0-0-0-0--------||

And this is the lead and tapping from 2:41 to 3:10
is not 100% correct, but is what i could find out!



                                   4x   W                   Q    Q    H         
--------||--------|-------|--------||--------------------|---------------------|
--------||--------|-------|--------||--------------------|---------------------|
-------*||*-------|-------|-------*||--------------------|---------------------|
-------*||*-------|-------|-------*||--/5----------------|--L----L----7--------|
--------||--------|-------|--------||--------------------|---------------------|
--------||--------|-------|--------||--------------------|---------------------|


  Q    Q    Q    Q        E  E  H        Q       W                 
-----------------------|----------------------|-------------------|
-----------------------|----------------------|-------------------|
-----------------------|----------------------|-------------------|
--L----5----L----LS----|--7--5----------------|-------------------|
-----------------------|--------6--------L----|--L----------------|
-----------------------|----------------------|-------------------|


  Q    Q    Q    Q       W                   Q    Q    Q    Q     
----------------------|-------------------|----------------------|
----------------------|-------------------|----------------------|
----------------------|-------------------|----------------------|
----------------------|--3----------------|--L----L----5----L----|
--L----L----L----L----|-------------------|----------------------|
----------------------|-------------------|----------------------|


  Q    Q    H           E  E  H        Q     
---------------------|----------------------|
---------------------|----------------------|
---------------------|----------------------|
--L----L----L--------|--2--3--L--------L----|
---------------------|----------------------|
---------------------|----------------------|


  |--3--|  |--3--|  |--3--|  |--3--|                       
  E  E  E  E  E  E  E  E  E  E  E  E     W                 
--------------------------------------|-------------------|
--------------------------------------|-------------------|
--------------------------------------|-------------------|
--L--L--5--L--L--L--L-----------------|-------------------|
-----------------------7--L--L--L--L--|--L----------------|
--------------------------------------|-------------------|


     T     T     T     T     T     T     T     T   
  S  S  S  S  S  S  S  S  S  S  S  S  S  S  S  S   
--------------------------------------------------|
--------------------------------------------------|
--------------------------------------------------|
--5h-7p-5h-7p-5h-7p-5h-7p-5h-7p-5h-7p-5h-7p-5h-7h-|
--------------------------------------------------|
--------------------------------------------------|


     T     T     T     T     T     T     T     T  
  S  S  S  S  S  S  S  S  S  S  S  S  S  S  S  S  
-------------------------------------------------|
-------------------------------------------------|
-------------------------------------------------|
--5h-7p-5h-7p-5h-7p-5h-9p-5h-9p-5h-9p-5h-9p-5h-9-|
-------------------------------------------------|
-------------------------------------------------|


     T     T     T     T     T     T     T     T   
  S  S  S  S  S  S  S  S  S  S  S  S  S  S  S  S   
--------------------------------------------------|
--------------------------------------------------|
--------------------------------------------------|
--5h-9p-5h-8p-5h-8p-5h-8p-5h-8p-5h-8p-5h-8p-5h-8h-|
--------------------------------------------------|
--------------------------------------------------|


     T     T     T     T     T     T     T     T   
  S  S  S  S  S  S  S  S  S  S  S  S  S  S  S  S   
--------------------------------------------------|
--------------------------------------------------|
--------------------------------------------------|
--3h-5p-3h-5p-3h-5p-3h-5p-3h-5p-3h-5p-3h-5p-3h-5h-|
--------------------------------------------------|
--------------------------------------------------|


     T     T     T     T     T     T     T     T   
  S  S  S  S  S  S  S  S  S  S  S  S  S  S  S  S   
--------------------------------------------------|
--------------------------------------------------|
--------------------------------------------------|
--3h-5p-3h-5p-3h-5p-3h-5p-3h-5p-3h-5p-3h-5p-3h-5h-|
--------------------------------------------------|
--------------------------------------------------|


     T     T     T     T     T     T     T     T   
  S  S  S  S  S  S  S  S  S  S  S  S  S  S  S  S   
--------------------------------------------------|
--------------------------------------------------|
--------------------------------------------------|
--3h-5p-3h-5p-3h-5p-3h-5p-3h-5p-3h-5p-3h-5p-3h-5h-|
--------------------------------------------------|
--------------------------------------------------|


     T     T     T     T     T     T     T     T   
  S  S  S  S  S  S  S  S  S  S  S  S  S  S  S  S   
--------------------------------------------------|
--------------------------------------------------|
--------------------------------------------------|
--1h-4p-1h-4p-1h-4p-1h-4p-1h-4p-1h-4p-1h-4p-1h-4h-|
--------------------------------------------------|
--------------------------------------------------|


     T     T     T     T     T     T     T     T   
  S  S  S  S  S  S  S  S  S  S  S  S  S  S  S  S   
--------------------------------------------------|
--------------------------------------------------|
--------------------------------------------------|
--1h-4p-1h-4p-1h-4p-1h-4p-2h-5p-2h-5p-2h-5p-2h-5h-|
--------------------------------------------------|
--------------------------------------------------|


     T     T     T     T     T     T     T     T   
  S  S  S  S  S  S  S  S  S  S  S  S  S  S  S  S   
--------------------------------------------------|
--------------------------------------------------|
--------------------------------------------------|
--2h-5p-2h-5p-2h-5p-2h-5p-2h-5p-2h-5p-2h-5p-2h-7h-|
--------------------------------------------------|
--------------------------------------------------|


     T     T     T     T     T     T     T     T   
  S  S  S  S  S  S  S  S  S  S  S  S  S  S  S  S   
--------------------------------------------------|
--------------------------------------------------|
--------------------------------------------------|
--5h-7p-5h-7p-5h-7p-5h-7p-5h-7p-5h-7p-5h-7p-5h-7h-|
--------------------------------------------------|
--------------------------------------------------|


     T     T     T     T     T     T     T     T   
  S  S  S  S  S  S  S  S  S  S  S  S  S  S  S  S   
--------------------------------------------------|
--------------------------------------------------|
--------------------------------------------------|
--5h-7p-5h-7p-5h-7p-5h-9p-5h-9p-5h-9p-5h-9p-5h-9h-|
--------------------------------------------------|
--------------------------------------------------|


     T     T     T     T     T     T                           
  S  S  S  S  S  S  S  S  S  S  S  S  S S S S                  
----------------------------------------------|----|----|----||
----------------------------------------------|----|----|----||
----------------------------------------------|----|----|----||
--5h-9p-5h-8p-5h-8p-5h-8p-5h-8p-5h-8h---------|----|----|----||
----------------------------------------------|----|----|----||
----------------------------------------------|----|----|----||

            
            
Suggest correction
Creating personal tab
Creating personal tab
You can edit any tab online and save it as your Personal.

You can edit, replace or remove any tab part or add personal notes – all changes will be seen only by you.

Personal tabs can be accessed anytime from any device, even offline.
Learn more »
Give kudos to tab author, rate the tab!
1 2 3 4 5
comments
print report bad tab
guest
Wanna post a correction for this tab? Suggest correction