Oops, an error
Loading. Please wait.
We have an official Here I Go Again tab made by UG professional guitarists. Check out the tab »
×
25,406 views 18 this week
3 commentsread comments
1 2 3 4 5
x 6
add to favorites
×
Save as Personal and add changes to this tab that will be seen only by you. Learn more ›
×
You can save this tab as Personal to edit and correct it or add notes. All changes will be seen only by you. Learn more »
launch autoscroll
font size
0
reset
guitar tuner
backing track
0:00
0:00
edit
Autoscroll
slow
fast
+/-
esc
set tempo
stop
Author
Artist:Whitesnake
Song:Here I Go Again
Tabbed By:Gary Hricewich - Improved by Adam Lacey
E-mail:snapper2001@msn.com


NO BASS (INTRO & 2 x Verse)

[Chorus]                 2X
G|-----|-----|-----|------||-----|-----|-----|-----|
D|-----|-----|-----|------||-----|-----|-----|-----|
A|-----|-3-3-|-5-5-|-3-5--||-----|-3-3-|-5-5-|-3-2-|
E|-3-3-|-----|-----|------||-3-3-|-----|-----|-----|
                                                      
                                2X   CHORUS END
G|---------------------------------||----------|
D|---------------------------------||----------|
A|-----------------5-5-5-5-5-5-5-5-||--3-5-----|
E|-5-5-5-5-5-5-5-5-----------------||----------|

                                                                          
[Verse]                             2X
G|-----------------------------------||------------------------------|
D|-----------------------------------||------------------------------|
A|---------5-5-5-5-5-3-3-3-3-3-3-3-5-||---------5-5-5-5-3-3-3-3--5-3-|
E|-3-3-3-3---------------------------||-3-3-3-3----------------------|
                                                     
                                 2X   VERSE END
G|---------------------------------||---------|
D|---------------------------------||---------|
A|-----------------5-5-5-5-5-5-5-5-||-3-5-----|
E|-5-5-5-5-5-5-5-5-----------------||---------|

[Chorus] (same as above)

[Bridge]                          3X
G|---------------------------------||---------------------|-----|
D|---------------------------------||---------------------|-----|
A|-7-7-7-7-7-7-7-7-----------------||-7-7-7-7-7-7-7-7-----|-3-5-|
E|-----------------5-5-5-5-5-5-5-5-||-------------------5-|-----|

-Guitar SOLO (Same as Verse)
-Chorus x3 (same as above) / FADE OUT ON 3RD TIME

            
            
Suggest correction
Creating personal tab
Creating personal tab
You can edit any tab online and save it as your Personal.

You can edit, replace or remove any tab part or add personal notes – all changes will be seen only by you.

Personal tabs can be accessed anytime from any device, even offline.
Learn more »
comments
print report bad tab
3 comments total.
0 reply
esposito.vincen 10 Apr 23, 2013 04:40 PM

Where is the part where Rudy Sarzo licks his bass?

0 reply
laceywhats 12 Dec 01, 2016 08:14 AM

This part below ends wrong. I should be "|-3-2-|" at the end NOT |-5-3-|!

CHORUS 2X
G---|------|-----|-----|------|-----|-----|-----|-----|
D---|*-----|-----|-----|-----*|-----|-----|-----|-----|
A---|*-----|-3-3-|-5-5-|-3-5-*|-----|-3-3-|-5-5-|-5-3-|
E---|--3-3-|-----|-----|------|-3-3-|-----|-----|-----|

guest
You may want to rate the tab now too:
select rating
Wanna post a correction for this tab? Suggest correction