Oops, an error
Loading. Please wait.

Is This Love Tab

version 1
version 1

Whole song

Interactive

113,082 views 339 this week
1 commentread comment
1 2 3 4 5
excellent!
x 13
add to favorites
launch autoscroll
font size
0
reset
how to read this tab
guitar tuner
Autoscroll
slow
fast
+/-
esc
set tempo
stop
Help us to improve Ultimate-Guitar.com Take our survey!
×
Author
Tabs : Andreyx   
Band : Whitesnake
Sobg : Is This Love

  [Intro]
     NH   NH   NH    
e|---------------------------|-------------------------|
B|---------------------------|-----------------3-------|
G|--------------7--0---------|--------0-------------0--|
D|---------7-----------------|-----4--------4----------|
A|----7----------------------|--2--------3-------------|
E|---------------------------|-------------------------|
 
         NH   NH   NH   NH                 
e|--------------------------------|-------------------------|
B|------------7-------------------|-----------------3-------|
G|-------5---------7---(7)--------|--------0----------------|
D|-------------------------7------|-----4--------4-------4--|
A|--------------------------------|--2--------3-------------|
E|--------------------------------|-------------------------|

         NH   NH   NH   NH                
e|-------------------------------|--------------------------|
B|----------7--------------------|-----------------3--------|
G|---------------7-----(7)-------|--------0-----------0-----|
D|-----7-------------------------|-----4--------4--------4--|
A|-------------------------------|--2--------3--------------|
E|-------------------------------|--------------------------|
   
e|--------------------------|------------------------|
B|--8--7-----5-----3-----0--|--0h--1-----------------|
G|--9--7-----5-----4-----0--|---------2--------------|
D|-----------------------3--|---------3--------------|
A|--------------------------|--------------------0-2-|
E|--------------------------|------------------------|

[Verse]

e|------0-----------------|-------------------------|
B|---------3--------------|-----------------3-------|
G|*-----------0-----------|--------0----------------|
D|*-----------------------|-----4--------4-------4--|
A|------------------------|--2--------3-------------|
E|---0--------------------|-------------------------|
       NH   NH   NH   NH   
-------------------------------|--------------------------|
---------7---------------------|-----------------3--------|
--------------7----7-----------|--------0-----------0-----|
-----------------------7-------|-----4--------4--------4--|
-------------------------------|--2--------3--------------|
-------------------------------|--------------------------|
 
         NH   NH   NH   NH   NH            
e|----------------------------------|--------------------------|
B|------------7---------------------|-----------------3--------|
G|-----------------7----(7)---------|--------0-----------0-----|
D|-------7-------------------7------|-----4--------4--------4--|
A|----------------------------------|--2--------3--------------|
E|----------------------------------|--------------------------|
                                                   1
--------------------------|--------------------------||
--8--7-----5-----3-----0--|--0h--1-------------------||
--9--7-----5-----4-----0--|---------2---------------*||  2x
-----------------------3--|---------3---------------*||
--------------------------|---------------------0-2--||
--------------------------|--------------------------||
                  
e|----------------------|-------------------|
B|--0h--1--1------------|-------------------|
G|--0------2------------|-------------------|
D|--3------3------------|-------------------|
A|----------------------|-------------------|
E|----------------------|-------------------|

[Chorus]

e|----------------------------|--------------------------|
B|----------------------------|--7--------7--------------|
G|---9---------9--------------|--7--------7--------------|
D|--10--------10--------------|--7--------7--------------|
A|--10--------10--------------|--------------------------|
E|------8--8------8--8--8--8--|-----8--8-----8--8--8--7--|
  
e|--------------------------|--------------------------|
B|--7--------7--------------|--------------------------|
G|--7--------7--------------|--------------------------|
D|--9--------9--------------|--------------------------| 2x
A|--------------------------|--------------------------|
E|-----7--7-----7--7--7--7--|--8--7-----5-----3----5-7-|

[Solo]

e|--15--14----12---------------|------12--12------------|
B|--17--15----13-----15----15--|------13--13------------|
G|-------------------12----12--|------------------------|
D|-----------------------------|------------------------|
A|-----------------------------|------------------------|
E|-----------------------------|------------------------|
          
e|---------------------------------------|-----------------------------|
B|---------------------------------------|------------------------12---|
G|--14g14pb-----------14g14pb----14g14---|--14------------/14----------|
D|---------------------------------------|-----------------------------|
A|---------------------------------------|-----------------------------|
E|---------------------------------------|-----------------------------|
                                  H           H     
-----------------------------|--------------------------|
------------------------13---|--/10\--------------------|
--12------------/16----------|--------------/11\--------|
-----------------------------|--------------------------|
-----------------------------|--------------------------|
-----------------------------|--------------------------|

[Bridge]

lake Intro 

[Chorus]

[Solo]

e|----------------------------|------------------------------|
B|--10g10--10g10pb---10pb-----|---10pb---------10pbr------8--|
G|----------------------------|------------------------------|
D|----------------------------|------------------------------|
A|----------------------------|------------------------------|
E|----------------------------|------------------------------|
                                                                                 
  |---3---|  |---3---|    |---3---|  |---3---                                    
------------------------------------------------------------------------------------------|
--7--7br---7Lbr--7--7br--7--7br--7--7br--7-----7--7br--7--7br--7--7br--7-7br-7------------|
-------------------------------------------------------------------------------7-\--------|
-----------------------------------------------------------------------------------------7|
-------------------------------------------------------------------------------------7-9--|
------------------------------------------------------------------------------------------|
          
e|------------------12b---12pb--12pbr-------|--------------------------------------|
B|----7-8s-10-12------------------------10--|---10~------15g15pb---15pbr----15b----|
G|--7---------------------------------------|--------------------------------------|
D|------------------------------------------|--------------------------------------|
A|------------------------------------------|--------------------------------------|
E|------------------------------------------|--------------------------------------|

                              |----3---|       
-----------------14-14-12-----------------------------------|
--15pbr----12-15----------15--------------------------------|
-----------------------------14pbr----12-14-----12-12-------|
--------------------------------------------14---------14/--|
------------------------------------------------------------|
------------------------------------------------------------|
   
e|--------------------12----14----15-15g15pb-|---15pb--------15pb---15pbr--15-14-15--|
B|----------------/12----12----12------------|---------------------------------------|
G|-------------------------------------------|---------------------------------------|
D|---------x---------------------------------|---------------------------------------|
A|---------x---------------------------------|---------------------------------------|
E|-------------------------------------------|---------------------------------------|
  
                 |---3---|   |---3---|    
---15~-----------12------14------15-----|--17g17pb--------17--17g17pb---17pbr----15-|
-----------/12------12------12------12--|-------------------------------------------|
----------------------------------------|-------------------------------------------|
----------------------------------------|-------------------------------------------|
----------------------------------------|-------------------------------------------|
----------------------------------------|-------------------------------------------|
                                 
e|--17-----------------20g20pb----|---20pbr----19b--19pbr-----------------------|
B|---------------15-15------------|------------------------20--------17-19-19g19|
G|--------------------------------|---------------------------19b---------------|
D|--------------------------------|---------------------------------------------|
A|--------------------------------|---------------------------------------------|
E|--------------------------------|---------------------------------------------|

e|-----------17-20-19-17-----------------------|
B|-----17----------------20b----20b----17----17|
G|----------------------------------------19---|
D|---------------------------------------------|
A|--19----17-----------------------------------|
E|---------------------------------------------|

[Solo]

e|--15--14----12---------------|------12--12------------|
B|--17--15----13-----15----15--|------13--13------------|
G|-------------------12----12--|------------------------|
D|-----------------------------|------------------------|
A|-----------------------------|------------------------|
E|-----------------------------|------------------------|

[Chorus]



************************************

| x    Dead note
| g    Grace note
| (n)  Ghost note
| h    Hammer-on
| b    Bend
| br   Bend release
| pb   Pre-bend
| pbr  Pre-bend release
| /    Slide up
| \    Slide down
| ~    Vibrato

************************************
Suggest correction
comments
print report bad tab
1 comment total.
0 reply
nasalegoguy 200 wrote on January 22 2015, 09:35 pm

You misspelled song...

guest
You may want to rate the tab now too:
select rating
Please do not post tabs as comments. Select "correction" instead!