Oops, an error
Loading. Please wait.

Looking For Love tab

version 1
version 1

Whole song

Interactive

10,118 views 12 this week
4 commentsread comments
1 2 3 4 5
2 more votes to show rating
add to favorites
×
Save as Personal and add changes to this tab that will be seen only by you. Learn more ›
×
You can save this tab as Personal to edit and correct it or add notes. All changes will be seen only by you. Learn more »
launch autoscroll
font size
0
reset
how to read this tab
guitar tuner
backing track
0:00
0:00
edit
Autoscroll
slow
fast
+/-
esc
set tempo
stop
Author
Looking for love - Whitesnake 

Tabbed by - msd - Lebanon

Verse:

   
e|---------3---------------2-------|---------3---------------2-------|
B|-----------0-----------0---0-----|-----------0-----------0---0-----|
G|-------0-----0-------0-------0---|-------0-----0-------0-------0---|
D|-----2---------2---2-----------2-|-----2---------2---2-----------2-|
A|---2-------------2---------------|---2-------------2---------------|
E|-0-------------------------------|-0-------------------------------|
   1   &   2   &   3   &   4   &     1   &   2   &   3   &   4   &



e|---------------------------------|---------3-----2-----------------|
B|-------1-----3-----1---1-------0-|-----------0---------------------|
G|-----0---------------0-------0---|-------0-----0-------------------|
D|---2-------4-----2---------4-----|-----2---------------------------|
A|-3-------5-----0---------2-------|---2-----------------------------|
E|---------------------------------|-0-------------------------------|
   1   &   2   &   3   &   4   &     1   &   2   &   3   &   4   &


Chorus:

                                
e|---------------------------------|---------------------------------|
B|---------------------------------|---------------------------------|
G|-5---------------7---------------|-2---------------4---------------|
D|-5-----------4-5-7-------7--5--4-|-2---------------4---------------|
A|-3-----------2-3-5-------5—-3--2-|-0-----------5-7-2---------0-2-0-|
E|---------------------------------|-------------3-5-----------------|
   1   &   2   &   3   &   4   &     1   &   2   &   3   &   4   &
 

          
e|---------------------------------|---------------------------------|
B|---------------------------------|---------------------------------|
G|-5---------------7---------------|---------------------------------|
D|-5-------5-------7---------------|-2-------------------------------|
A|-3-------3--4--5-5-------5-------|-2-------------------------------|
E|------------2--3------------3--2-|-0-------------------------------|
   1   &   2   &   3   &   4   &     1   &   2   &   3   &   4   &
  

Intermediate:

e|---------------------------------|---------------------------------|
B|---------------------------------|---------------------------------|
G|---------------------------------|---------------------------------|
D|---------7-----------------------|---------2-------2---------------|
A|---------7-------7-------7-------|---------2-------2---------------|
E|-3-0-2-0-5-----3-5-----3-5-------|-5-0-2---0-------0---------------|
   1   &   2   &   3   &   4   &     1   &   2   &   3   &   4   &


  
e|---------------------------------|---------------------------------|
B|---------------------------------|---------------------------------|
G|---------------------------------|---------------------------------|
D|---------7-----------------------|---------2-------2---------------|
A|---------7-------7-------7-------|---------2-------2---------------|
E|-3-0-2-0-5-----3-5-----3-5-------|-5-0-2---0-------0---------------|
   1   &   2   &   3   &   4   &     1   &   2   &   3   &   4   &


Chorus:

Solo:
Played over verse and chorus

Intermediate:

Chorus:

Intermediate:

Chorus:

Outro:

                                        
e|---------------------------------|---------------------------------|
B|---------------------------------|---------------------------------|
G|-9---------------7---------------|-5---------------7---------------|
D|-9---------------7---------------|-5---------------7---------------|
A|-7---------------5---------------|-3---------------5---------------|
E|---------------------------------|---------------------------------|
   1   &   2   &   3   &   4   &     1   &   2   &   3   &   4   &

Tabbed by - msd - Lebanon

            
            
Suggest correction
Creating personal tab
Creating personal tab
You can edit any tab online and save it as your Personal.

You can edit, replace or remove any tab part or add personal notes – all changes will be seen only by you.

Personal tabs can be accessed anytime from any device, even offline.
Learn more »
Give kudos to tab author, rate the tab!
1 2 3 4 5
comments
print report bad tab
4 comments total. Showing first comments.
0 reply
InTiMiDaToR 10 Feb 13, 2007 03:39 AM

the best thing on this song its the solo , where is it?

0 reply
Chevymeister 10 Sep 11, 2010 12:00 PM

I agree, i've been waiting for years. Wish I was better at playing by ear haha.

This tab made me very happy to see though :D

0 reply
MaggaraMarine 1,223 May 27, 2011 07:47 AM

The best solo is the middle solo. That's so cool solo with whammy bar and nice pull offs.

The clean guitar thing is almost correct but a little bit off.

It should be like this:

e|---------3-------------2-----|
B|-------3---3---------3---3---|
G|-----0-------0-----0-------0-|
D|---2-------------2-----------|
A|-----------------------------|
E|-0-------------0-------------|

(x2)

e|---------------------------------|
B|-----3-------3-------0-------3---|
G|-------0-----------5---5-------0-|
D|---4-------4-----5---------4-----|
A|-3-------5-----0---------2-------|
E|---------------------------------|

e|---------3-----2--|
B|-------3---3---3--|
G|-----0-------0----|
D|---2--------------|
A|------------------|
E|-0----------------|

guest
You may want to rate the tab now too:
select rating
Wanna post a correction for this tab? Suggest correction