Oops, an error
Loading. Please wait.

Still Of The Night Bass Tab

version 1
version 1

Whole song

15,789 views 48 this week
no commentswrite comment
1 2 3 4 5
excellent!
x 4
add to favorites
launch autoscroll
font size
0
reset
guitar tuner
Autoscroll
slow
fast
+/-
esc
set tempo
stop
Help us to improve Ultimate-Guitar.com Take our survey!
×
Contributor
FileDeleted 1,705
G|-------------|
D|-------------|
A|--->------>--|
E|-0-2----0-2--|

G|-----------|
D|-----------|
A|---.----.--|
E|-0-2--0-2--|

G|-------------------------------------------------------|
D|--------------------------------------------4----------|
A|-2-3-0--2-3-2-0-2-0---2-3-2-0-2-0-----------------3-2--|
E|--------------------2-------------2---2-22---2--2------|

G|-------------------------------------------------|
D|-------------------------------------------------|
A|--2-3-2-0-2-0---2-3-2-0-2-0----------4------2-0--|
E|--------------2-------------2---2-22---2--2------|

G|---------|
D|---------|
A|->----.--|
E|-2--0-2--|

G|-------------------------------------------------------|
D|--------------------------------------------4----------|
A|-2-3-0--2-3-2-0-2-0---2-3-2-0-2-0-----------------3-2--|
E|--------------------2-------------2---2-22---2--2------|

G|-------------------------------------------------|
D|-------------------------------------------------|
A|--2-3-2-0-2-0---2-3-2-0-2-0----------4------2-0--|
E|--------------2-------------2---2-22---2--2------|

G|---------------------------------------|
D|---------------------------------------|
A|-----7--------7--------7--------7---5--| x2
E|-000---0--000---0--000---0--000---0----|

G|--------------------------------------------------------------|
D|--------------------------------------------------------------|
A|----------------------------------2-222-222-222-22---2--0-----|
E|-5-555-555-555-555-555-555-555-55--------------------------1--|

G|---------------------------------------|
D|---------------------------------------|
A|-----7--------7--------7--------7---5--| x2
E|-000---0--000---0--000---0--000---0----|

G|-------------------------------------------------------|
D|--------------------------------------------4----------|
A|-2-3-0--2-3-2-0-2-0---2-3-2-0-2-0-----------------3-2--|
E|--------------------2-------------2---2-22---2--2------|

G|-------------------------------------------------|
D|-------------------------------------------------|
A|--2-3-2-0-2-0---2-3-2-0-2-0----------4------2-0--|
E|--------------2-------------2---2-22---2--2------|

G|---------|
D|---------|
A|->----.--|
E|-2--0-2--|

G|---------------------------------------|
D|---------------------------------------|
A|-----7--------7--------7--------7---5--| x2
E|-000---0--000---0--000---0--000---0----|

G|-------------------------------------------------------------|
D|-------------------------------------------------------------|
A|-5-555-555-555-55-3-333-333-333-33-0-000-000-000-00----------|
E|-----------------------------------------------------1~--0~--|

(02:11)
G|---------------------------------------------------------|
D|-7-5~--7-9~--9~--7-9~--7-5~--7-9~-9~--7-9~--7-5~--7-9~---|
A|-5-3~--5-7~--7~--5-7~--5-3~--5-7~-7~--5-7~--5-3~--5-7~---|
E|---------------------------------------------------------|

(02:59)
G|-------------------------------|
D|-------------------------------|
A|---------------3-3~------------|
E|-0-0~--0-0~----------0-0~------|

G|------------------------------------------------------------------|
D|------------------------------------------------------------------|
A|---------------5-33-33-33-33-3-5---------------5-33-33-33-33-3-5--|
E|-00-00-00-00-0-------------------00-00-00-00-0--------------------|

G|------------------------------------------------------------------|
D|------------------------------------------------------------------|
A|------------------5-33-333-333-333-3-5------------------5-33-333--|
E|-00-000-000-000-0----------------------00-000-000-000-0-----------|

G|-------------|
D|-------------|
A|-333-333-3-5-|
E|-------------|

(03:57)
G|-----------|
D|-----------|
A|---------7-| x32 (play this during the guitar solo)
E|-00-0-00---|

G|-------------------------------------------------------|
D|--------------------------------------------4----------|
A|-2-3-0--2-3-2-0-2-0---2-3-2-0-2-0-----------------3-2--|
E|--------------------2-------------2---2-22---2--2------|

G|-------------------------------------------------|
D|-------------------------------------------------|
A|--2-3-2-0-2-0---2-3-2-0-2-0----------4------2-0--|
E|--------------2-------------2---2-22---2--2------|

G|---------|
D|---------|
A|->----.--|
E|-2--0-2--|

G|---------------------------------------|
D|---------------------------------------|
A|-----7--------7--------7--------7---5--| x2
E|-000---0--000---0--000---0--000---0----|

G|--------------------------------------------------------------|
D|--------------------------------------------------------------|
A|----------------------------------2-222-222-222-22---2--0-----|
E|-5-555-555-555-555-555-555-555-55--------------------------1--|


(play this riff repeatdedly till the end of the song...)
G|------------------------------------------------------------------|
D|------------------------------------------------------------------|
A|-7-777-777-77-5-3-333-333-33-2-0-000-000-00-----------------------|
E|--------------------------------------------3-1-111-111-111-11----|
Suggest correction new What's this?
You can suggest a correction to this tab. Community and Mods will review your correction and vote to approve or reject it.
comments
print report bad tab
guest
You may want to rate the tab now too:
select rating
Please do not post tabs as comments. Select "correction" instead!