Oops, an error
Loading. Please wait.

Youre Gonna Break My Heart Again bass

version 1
version 1

Whole song

Interactive

414 views 1 this week
no commentswrite comment
1 2 3 4 5
3 more votes to show rating
add to favorites
×
Save as Personal and add changes to this tab that will be seen only by you. Learn more ›
×
You can save this tab as Personal to edit and correct it or add notes. All changes will be seen only by you. Learn more »
launch autoscroll
font size
0
reset
guitar tuner
edit
Autoscroll
slow
fast
+/-
esc
set tempo
stop
Author
Difficulty
-----------------------------------------------------------------------------
		                  
            You're Gonna Break My Heart Again - Whitesnake (BASS)
            
-----------------------------------------------------------------------------
Tabbed by: Scotto10

Tuning: standard tuning

=============================================================================
            
                                                                      
Bass



     H        E  E  E  E     Q    Q    Q    Q       Q    Q    E  E  E  E   
G||-----------------------|----------------------|------------------------|
D||-----------------------|----------------------|------------------------|
A||-----------------------|----------------------|------------------------|
D||--------------3--2--0--|-------0---------0----|-------0-------0-----0--|


  Q    Q    Q    Q       Q    Q    E  E  E  E     Q    Q    Q    Q     
----------------------|------------------------|----------------------|
----------------------|------------------------|----------------------|
----------------------|------------------------|----------------------|
-------0---------0----|-------0-------3--2--0--|-------0---------0----|


  Q    Q    Q    E  E     E  E  E  E  E  E  E  E     Q    E  E  Q.     E   
-----------------------|--------------------------|-----------------------|
-----------------------|--------------------------|-----------------------|
-----------------------|--1--0--1--3--5--3--5--7--|-------------0------1--|
-------0---------0-----|--------------------------|--0----0--3------------|


  Q.     Q    E  E  E     Q    E  E  Q.     E     Q.     Q    E  E  E   
-----------------------|-----------------------|-----------------------|
-----------------------|-----------------------|-----------------------|
--L------0-------------|-------------0------1--|--L------0-------------|
--------------0--0--0--|--0----0--3------------|--------------3--2--0--|


  Q    E  E  Q.     E     Q.     Q.     Q        E  E  E  E  E  E  E  E   
-----------------------|----------------------|--------------------------|
-----------------------|----------------------|--------------------------|
-------------0------1--|--L------0------1\----|--1--0--1--3--5--3--5--7--|
--0----0--3------------|----------------------|--------------------------|


  E  E  E   E   E   E  Q        Q    Q    Q    Q       Q    Q    E  E  E  E   
-----------------------------|----------------------|------------------------|
-----------------------------|----------------------|------------------------|
--8--7--8--10--12--10--8\----|----------------------|------------------0--5--|
-----------------------------|--0----0----0----0----|--0----0----0--3--------|


  Q.     E  Q.     E     E  E  E  E  E  E  E  E     Q    Q    Q    Q     
----------------------|--------------------------|----------------------|
----------------------|--------------0-----------|----------------------|
--3------1--1------0--|--1--0--1--3-----3--1--0--|----------------------|
----------------------|--------------------------|--0----0----0----0----|


  Q    Q    E  E  E  E     Q.     E  Q.     E     E  E  E  E  E  E  E  E   
------------------------|----------------------|--------------------------|
------------------------|----------------------|--------------0-----------|
------------------0--5--|--3------1--1------0--|--1--0--1--3-----3--1-----|
--0----0----0--3--------|----------------------|-----------------------5--|


  E  E   Q    Q.     E     E  E  Q    Q.     E     E  E  Q    Q.     E   
------------------------|-----------------------|-----------------------|
------------------------|-----------------------|-----------------------|
------------------------|-----------------------|-----------------------|
--L--3--/7----5------7--|--L--5--8----7------8--|--L--7--8----8------7--|


  E  E  Q    H           H         H           H         H         
----------------------|---------------------|---------------------|
----------------------|-----------/5--------|-----------/3--------|
----------------------|---------------------|---------------------|
--L--5--7----7--------|--5------------------|--3------------------|


  E  E  E  E  E  E  E  E     E  E  E  E  E  E  E  E     Q    E  E  Q.     E   
--------------------------|--------------------------|-----------------------|
--------------------------|--------------------------|-----------------------|
--------------------------|--------------------------|-------------0------1--|
--1--1--1--1--1--1--1--1--|--1--1--1--1--1--1--1--1--|--0----0--3------------|


  Q.     Q    E  E  E     Q    E  E  Q.     E     Q.     Q    E  E  E   
-----------------------|-----------------------|-----------------------|
-----------------------|-----------------------|-----------------------|
--L------0-------------|-------------0------1--|--L------0-------------|
--------------0--0--0--|--0----0--3------------|--------------3--2--0--|


  Q    E  E  Q.     E     Q.     Q    Q.         E  E  E  E  E  E  E   E   
-----------------------|----------------------|---------------------------|
-----------------------|----------------------|---------------------------|
-------------0------1--|--L------0------------|---------------------------|
--0----0--3------------|--------------6\------|--8--8--8--8--8--7--8--10--|


   E   E   E   E   E  E   E   E     Q    Q    Q    Q     
------------------10--9----------|----------------------|
--------------10---------10------|----------------------|
----------10-----------------10--|----------------------|
---L--10-------------------------|-------0---------0----|


  Q    Q    E  Q    E     Q    Q    Q    Q       E  E  E  E  E  E  E  E   
-----------------------|----------------------|--------------------------|
-----------------------|----------------------|--------------0-----------|
-----------------------|----------------------|--1--0--1--3-----3--1--0--|
-------0-------0----0--|-------0---------0----|--------------------------|


  Q    Q    Q    Q       Q    Q    E  E  E  E     Q.     E  Q.     E   
----------------------|------------------------|----------------------|
----------------------|------------------------|----------------------|
----------------------|------------------0--5--|--3------1--1------0--|
--0----0----0----0----|--0----0----0--3--------|----------------------|


  E  E  E  E  E  E  E  E     Q    Q    Q    Q       Q    Q    E  E  E  E   
--------------------------|----------------------|------------------------|
--------------0-----------|----------------------|------------------------|
--1--0--1--3-----3--1--0--|----------------------|------------------0--5--|
--------------------------|--0----0----0----0----|--0----0----0--3--------|


  Q.     E  Q.     E     E  E  E  E  E  E  E  E     E  E   Q    Q.     E   
----------------------|--------------------------|------------------------|
----------------------|--------------0-----------|------------------------|
--3------1--1------0--|--1--0--1--3-----3--1-----|------------------------|
----------------------|-----------------------5--|--L--3--/7----5------7--|


  E  E  Q    Q.     E     E  E  Q    Q.     E     E  E  Q    H         
-----------------------|-----------------------|----------------------|
-----------------------|-----------------------|----------------------|
-----------------------|-----------------------|----------------------|
--L--5--8----7------8--|--L--7--8----8------7--|--L--5--7----7--------|


  H         H           H         H           E  E  E  E  E  E  E  E   
---------------------|---------------------|--------------------------|
-----------/5--------|-----------/3--------|--------------------------|
---------------------|---------------------|--------------------------|
--5------------------|--3------------------|--1--1--1--1--1--1--1--1--|


  E  E  E  E  E  E  E  E     Q    E  E  Q.     E     Q.     Q    E  E  E   
--------------------------|-----------------------|-----------------------|
--------------------------|-----------------------|-----------------------|
--------------------------|-------------0------1--|--L------0-------------|
--1--1--1--1--1--1--1--1--|--0----0--3------------|--------------0--0--0--|


  Q    E  E  Q.     E     Q.     Q    E  E  E     Q    E  E  Q.     E   
-----------------------|-----------------------|-----------------------|
-----------------------|-----------------------|-----------------------|
-------------0------1--|--L------0-------------|-------------0------1--|
--0----0--3------------|--------------3--2--0--|--0----0--3------------|


  Q.     Q.     Q        E  E  E  E  E  E  E  E   
----------------------|--------------------------|
----------------------|--------------------------|
--L------0------1\----|--1--0--1--0--1--3--5--5--|
----------------------|--------------------------|


  E    E   E   E   E  E   E   E     W                   W                 
------------------10--9----------|-------------------|-------------------|
--------------10---------10------|-------------------|-------------------|
----------10-----------------10--|-------------------|-------------------|
-----/10-------------------------|--0----------------|--L----------------|


  W                   W                   W                                     
-------------------|-------------------|-------------------|-------------------|
-------------------|-------------------|-------------------|-------------------|
-------------------|-------------------|-------------------|-------------------|
--L----------------|--L----------------|--L----------------|-------------------|


                                          W                   W                 
-------------------|-------------------|-------------------|-------------------|
-------------------|-------------------|-------------------|-------------------|
-------------------|-------------------|-------------------|-------------------|
-------------------|-------------------|--0----------------|--L----------------|


  W                   W                   W                                
-------------------|-------------------|-------------------|----|----|----|
-------------------|-------------------|-------------------|----|----|----|
-------------------|-------------------|-------------------|----|----|----|
--L----------------|--L----------------|--L----------------|----|----|----|


  H         Q.     E     H         H           H         Q.     E   
----------------------|---------------------|----------------------|
----------------------|---------------------|----------------------|
----------------------|---------------------|----------------------|
--5\---------------7--|--7\-----------------|--8\---------------7--|


  H         H           W                   W                 
---------------------|-------------------|-------------------|
---------------------|-------------------|-------------------|
---------------------|-------------------|-------------------|
--7\-----------------|--5----------------|--3----------------|


  E  E  E  E  E  E  E  E     E  E  E  E  E  E  E  E     Q    E  E  Q.     E   
--------------------------|--------------------------|-----------------------|
--------------------------|--------------------------|-----------------------|
--------------------------|--------------------------|-------------0------1--|
--1--1--1--1--1--1--1--1--|--1--1--1--1--1--1--1--1--|--0----0--3------------|


  Q.     Q    E  E  E     Q    E  E  Q.     E     Q.     Q    E  E  E   
-----------------------|-----------------------|-----------------------|
-----------------------|-----------------------|-----------------------|
--L------0-------------|-------------0------1--|--L------0-------------|
--------------0--0--0--|--0----0--3------------|--------------3--2--0--|


  Q    E  E  Q.     E     Q.     Q.     Q       Q    E  E  Q.     E   
-----------------------|---------------------|-----------------------|
-----------------------|---------------------|-----------------------|
-------------0------1--|--L------0------1----|-------------0------1--|
--0----0--3------------|---------------------|--0----0--3------------|


  Q.     Q    E  E  E     Q    E  E  Q.     E     Q.     Q    E  E  E   
-----------------------|-----------------------|-----------------------|
-----------------------|-----------------------|-----------------------|
--L------0-------------|-------------0------1--|--L------0-------------|
--------------3--2--0--|--0----0--3------------|--------------0--0--0--|


  Q    E  E  Q.     E     Q.     Q    E  E  E     Q    E  E  Q.     E   
-----------------------|-----------------------|-----------------------|
-----------------------|-----------------------|-----------------------|
-------------0------1--|--L------0-------------|-------------0------1--|
--0----0--3------------|--------------3--2--0--|--0----0--3------------|


  Q.     Q.     Q       Q    E  E  E  E  E  E     E  E  E  E  E  E  E  E   
---------------------|-------------------------|--------------------------|
---------------------|-------------------------|--------------------------|
--L------0------1----|-------------------------|--------------------------|
---------------------|--5----5--5--5--5--5--3--|--L--3--3--3--3--3--3--3--|


  E  E  E  E  E  E  E  E     E  E  E  E  E  E  E  E                            
--------------------------|--------------------------|----|----|----|----|----|
--------------------------|--------------------------|----|----|----|----|----|
--------------------------|--------------------------|----|----|----|----|----|
--1--1--1--1--1--1--1--1--|--1--1--1--1--1--1--1--1--|----|----|----|----|----|


            H.           Q       E  H        Q    E     E  H        Q.      
----|----|--------------------|----------------------|---------------------|
----|----|--------------------|----------------------|---------------------|
----|----|--------------------|----------------------|---------------------|
----|----|---------------5----|--5----------------5--|--7------------------|


  E  E  Q    Q.     E     E  H        Q.        H         H         
-----------------------|---------------------|---------------------|
-----------------------|---------------------|-----------/5--------|
-----------------------|---------------------|---------------------|
--8-----------------8--|--7------------------|--5------------------|


  H         H           E  E  E  E  E  E  E  E     E  E  E  E  E  E  E  E   
---------------------|--------------------------|--------------------------|
-----------/3--------|--------------------------|--------------------------|
---------------------|--------------------------|--------------------------|
--3------------------|--1--1--1--1--1--1--1--1--|--1--1--1--1--1--1--1--1--|


  Q    E  E  Q.     E     Q.     Q    E  E  E     Q    E  E  Q.     E   
-----------------------|-----------------------|-----------------------|
-----------------------|-----------------------|-----------------------|
-------------0------1--|--L------0-------------|-------------0------1--|
--0----0--3------------|--------------0--0--0--|--0----0--3------------|


  Q.     Q    E  E  E     Q    E  E  Q.     E     Q.     Q    Q.       
-----------------------|-----------------------|----------------------|
-----------------------|-----------------------|----------------------|
--L------0-------------|-------------0------1--|--L------0------------|
--------------3--2--0--|--0----0--3------------|--------------6\------|


  E  E  E  E  E  E  E   E      E   E   E  E   E  E  E  E   
---------------------------|------------------------------|
---------------------------|------------------------------|
---------------------------|--------------8---------------|
--8--8--8--8--8--7--8--10--|---L--10--10-----10--8--7--5--|


  Q    E  E  Q.     E     Q.     Q    E  E  E     Q    E  E  Q.     E   
-----------------------|-----------------------|-----------------------|
-----------------------|-----------------------|-----------------------|
-------------0------1--|--L------0-------------|-------------0------1--|
--0----0--3------------|--------------0--0--0--|--0----0--3------------|


  Q.     Q    E  E  E     Q    E  E  Q.     E     Q.     Q    Q.       
-----------------------|-----------------------|----------------------|
-----------------------|-----------------------|----------------------|
--L------0-------------|-------------0------1--|--L------0------------|
--------------3--2--0--|--0----0--3------------|--------------6\------|


  E  E  E  E  E  E  E   E      E   E  E  E   E  Q    E     Q    Q    Q    Q     
---------------------------|----------------------------|----------------------|
---------------------------|----------------------------|----------------------|
---------------------------|----------8--7--------------|----------------------|
--8--8--8--8--8--7--8--10--|---L--10--------10--8-------|-------0---------0----|


  Q    Q    E  Q    E     Q    Q    Q    Q       Q    Q    E  E  E  E   
-----------------------|----------------------|------------------------|
-----------------------|----------------------|------------------------|
-----------------------|-------1---------1----|-------1----------------|
-------0-------0----0--|----------------------|---------------3--2--0--|


  Q    Q    Q    Q       Q    Q    E  Q    E     Q.     Q    Q.      
----------------------|-----------------------|---------------------|
----------------------|-----------------------|---------------------|
----------------------|-----------------------|--3------1----1------|
-------0---------0----|-------0-------0----0--|---------------------|


  W                   W                   W                  
-------------------|-------------------|-------------------||
-------------------|-------------------|-------------------||
--L----------------|--L----------------|--L----------------||
-------------------|-------------------|-------------------||




Duration Legend
---------------
W - whole
H - half
Q - quarter
E - 8th
S - 16th
T - 32nd
X - 64th
. - note dotted
|-n-|  - n-tuplets


Tablature Legend
----------------
L - tied note
x - dead note
g - grace note
(n) - ghost note
> - accentuded note
NH - natural harmonic
AH - artificial harmonic
TH - tapped harmonic
SH - semi harmonic
PH - pitch harmonic
h - hammer on
p - pull off
b - bend
br - bendRelease
pb - preBend
pbr - preBendRelease
brb - bendReleaseBend
\n/ - tremolo bar dip
\n - tremolo bar dive
-/n - tremolo bar Release up
/n\ - tremolo bar inverted dip
/n - tremolo bar return
-\n - tremolo bar Release down
S - shift slide
s - legato slide
/ -  slide into from below or out of upwards
\ -  slide into from above or out of downwards
~ - vibrato
W - wide vibrato
tr - trill
TP - tremolo picking
T - tapping
S - slap
P - pop
< - fade in
^ - brush up
v - brush down
Suggest correction
Creating personal tab
Creating personal tab
You can edit any tab online and save it as your Personal.

You can edit, replace or remove any tab part or add personal notes – all changes will be seen only by you.

Personal tabs can be accessed anytime from any device, even offline.
Learn more »
Give kudos to tab author, rate the tab!
1 2 3 4 5
comments
print report bad tab
guest
You may want to rate the tab now too:
select rating
Wanna post a correction for this tab? Suggest correction