Oops, an error
Loading. Please wait.

She So Fly Tab

615 views 1 this week
no commentswrite comment
1 2 3 4 5
3 more votes to show rating
add to favorites
launch autoscroll
font size
0
reset
how to read this tab
guitar tuner
Autoscroll
slow
fast
+/-
esc
set tempo
stop
Help us to improve Ultimate-Guitar.com Take our survey!
×
Author
intro is a bassline followed by some scratchy muting,


main riff

E------------------|
B------------------|
G------------------|  x4
D-7-7--5-----------|
A-5-5--3-5-x-5-5---|
E--------3-x-3-3---|


pre-chorus

E-----------------------------|
B-----------------------------|
G-----------------------------|
D-7-7-7-7-7-7-7-5-5-5-5-5-5-5-|
A-5-5-5-5-5-5-5-3-3-3-3-3-3-3-|
E-----------------------------|


chorus

E------------------------------------|
B------------------------------------|
G------------------------------------|   x2
D-----------------5-5-5-5-5-5-5-5----|
A-5-5-5-5-5-5-5-5-3-3-3-3-3-3-3-3----|
E-3-3-3-3-3-3-3-3--------------------|

chorus end riff

E-----------------------------------------------------------------|
B-----------------------------------------------------------------|
G-----------------------------------------------------------------|
D-9-9-9-9-9-9-9-9-----------------5-5-5-5-5-5-5-5-----------------|
A-7-7-7-7-7-7-7-7-9-9-9-9-9-9-9-9-3-3-3-3-3-3-3-3-5-5-5-5-5-5-5-5-|
E-----------------7-7-7-7-7-7-7-7-----------------3-3-3-3-3-3-3-3-|


main riff again

E------------------|
B------------------|
G------------------|  x2
D-7-7--5-----------|
A-5-5--3-5-x-5-5---|
E--------3-x-3-3---|


interlude

E----------------------------------------------------------------------------|
B----------------------------------------------------------------------------|
G-------11-14-14-11-14b-14-11-14b-14--16-14-11-------------------------------|
D-12-14----------------------------------------14-14-12-14-14-12-14-12-14-12-|
A----------------------------------------------------------------------------|
E----------------------------------------------------------------------------|


main riff

E------------------|
B------------------|
G------------------|  x4
D-7-7--5-----------|
A-5-5--3-5-x-5-5---|
E--------3-x-3-3---|

pre-chorus

E-----------------------------|
B-----------------------------|
G-----------------------------|
D-7-7-7-7-7-7-7-5-5-5-5-5-5-5-|
A-5-5-5-5-5-5-5-3-3-3-3-3-3-3-|
E-----------------------------|

chorus

E------------------------------------|
B------------------------------------|
G------------------------------------|   x2
D-----------------5-5-5-5-5-5-5-5----|
A-5-5-5-5-5-5-5-5-3-3-3-3-3-3-3-3----|
E-3-3-3-3-3-3-3-3--------------------|

chorus end riff

E-----------------------------------------------------------------|
B-----------------------------------------------------------------|
G-----------------------------------------------------------------|
D-9-9-9-9-9-9-9-9-----------------5-5-5-5-5-5-5-5-----------------|
A-7-7-7-7-7-7-7-7-9-9-9-9-9-9-9-9-3-3-3-3-3-3-3-3-5-5-5-5-5-5-5-5-|
E-----------------7-7-7-7-7-7-7-7-----------------3-3-3-3-3-3-3-3-|


main riff

E------------------|
B------------------|
G------------------|  x2
D-7-7--5-----------|
A-5-5--3-5-x-5-5---|
E--------3-x-3-3---|

theres a break here with this playing in backround

E--------------|
B--------------|
G--------------|
D-7-7--7-x-5-5-|
A-5-5--5-x-5-5-|
E--------------|


during the break rainbow also plays the interlude again which is:

E----------------------------------------------------------------------------|
B----------------------------------------------------------------------------|
G-------11-14-14-11-14b-14-11-14b-14--16-14-11-------------------------------|
D-12-14----------------------------------------14-14-12-14-14-12-14-12-14-12-|
A----------------------------------------------------------------------------|
E----------------------------------------------------------------------------|

chorus

E------------------------------------|
B------------------------------------|
G------------------------------------|   x4
D-----------------5-5-5-5-5-5-5-5----|
A-5-5-5-5-5-5-5-5-3-3-3-3-3-3-3-3----|
E-3-3-3-3-3-3-3-3--------------------|


chorus end riff

E-----------------------------------------------------------------|
B-----------------------------------------------------------------|
G-----------------------------------------------------------------|
D-9-9-9-9-9-9-9-9-----------------5-5-5-5-5-5-5-5-----------------|
A-7-7-7-7-7-7-7-7-9-9-9-9-9-9-9-9-3-3-3-3-3-3-3-3-5-5-5-5-5-5-5-5-|
E-----------------7-7-7-7-7-7-7-7-----------------3-3-3-3-3-3-3-3-|


normally rainbow when playing this live would play a 3 minute improvised solo i dont 
the whole solo but you can base it around this one lick i found out

E------------|
B----12---12-|
G-12b--12b---|
D------------|
A------------|
E------------|

played several times and sped up followed by random ass effects stuff
Suggest correction
Give kudos to tab author, rate the tab!
1 2 3 4 5
comments
print report bad tab
guest
You may want to rate the tab now too:
select rating
Wanna post a correction for this tab? Suggest correction