Oops, an error
Loading. Please wait.

Tell You Twice Bass Tab

107 views 1 this week
no commentswrite comment
1 2 3 4 5
2 more votes to show rating
add to favorites
launch autoscroll
font size
0
reset
guitar tuner
×
Best way to learn
"Tell You Twice"
Autoscroll
slow
fast
+/-
esc
set tempo
stop
Whitmore - Tell you twice
Album - Smoke the roach
Regular tuning
Tabbed by James Lindsay
 
Intro

|--------------------------------------------------------------|
|--------------------------------------------------------------|
|------------------------------------------------------4-5-6-7-|
|-4h5-5-5—4h5-5-5—4h5-5-5—4h5-5-5—4h5-5-5-4h5-5-5--4-5---------|

Verse

|-------------------------|
|----2---2----4--2--------|
|--0---0----2------4--2---|
|-------------------------|

Chorus

|---------------------------------------------------------------------|
|---4-5-6-----------4-5-6-------------------4-5-6---------------------|
|-5--------4-5-6--5--------4-5-6---1-2-3-—5-------5-5-5-5-5-5-5-4-3-2-|
|---------5---------------5-------2-----------------------------------|

Interlude

|---------| |-------------|
|---------| |-------------|
|---------| |-----4-5-6-7-|
|-4h5-5-5-| |--4-5--------|

End on

|----|
|----|
|-6*-|
|----|
Suggest correction
Give kudos to tab author, rate the tab!
1 2 3 4 5
comments
print report bad tab
guest
You may want to rate the tab now too:
select rating
Wanna post a correction for this tab? Suggest correction