Oops, an error
Loading. Please wait.

Daves Song tab

by whitney
5,965 views 99 this week
no commentswrite comment
1 2 3 4 5
x 6
add to favorites
×
Save as Personal and add changes to this tab that will be seen only by you. Learn more ›
×
You can save this tab as Personal to edit and correct it or add notes. All changes will be seen only by you. Learn more »
launch autoscroll
font size
0
reset
how to read this tab
guitar tuner
edit
Autoscroll
slow
fast
+/-
esc
set tempo
stop
Just so you know, I've tabbed it like there was no capo - seemed easier that way 
Taken from "Live on radio K" https://www.youtube.com/watch?v=IEQRk-brqkM 

[Intro]

      C#            A#m                                  C#
e|----1-----4/6---|--1---------1---------------------|----------|
B|----2-----4/6---|--2-----2h4---4-2p1---------------|----------|
G|----1-----------|--3-----------------3p1-----------|----------| x2
D|----3-----------|--3---------------------3p1---1h3-|----------|
A|----4-----------|--1-------------------------4-----|---4-4----|
E|----------------|----------------------------------|----------|


[Verse]

   C#                  A#m                               
e|-------1-----4/6---|--1---------1---------------------|
B|-------2-----4/6---|--2-----2h4---4-2p1---------------|
G|-------1-----------|--3-----------------3p1-----------| x3
D|-------3-----------|--3---------------------3p1---1h3-|
A|-4-4---4-----------|--1-------------------------4-----|
E|-------------------|----------------------------------|

         C#            A#m                                 
e|-------1-----4/6--|---1---------------|
B|-------2-----4/6--|---2------2----2-1-|
G|-------1----------|---3---------------|
D|-------3----------|---3---------------|
A|--4-4--4----------|---1---------------|
E|------------------|-------------------|

And a couple of times in the second verse
      C#            A#m                                 
e|-------1-----4/6--|---1--------------------|
B|-------2-----4/6--|---2------2-1-----------|
G|-------1----------|---3----------3-1-----1-|
D|-------3----------|---3--------------1h3---|
A|--4-4--4----------|---1--------------------|
E|------------------|------------------------|


[Chorus]

Max plays lots of small variation here and there - and I've included some - but this is roughly the way
I like to play it

    D#m           G#             C#     G#     A#m                
e|---6--6---------8--8----8--|------------------6----------------|
B|---7--7---------9--9-------|----9------9------6----6-----------|
G|---8--8-6-------8--8--8----|---10------8------6----6h8----6h8p6|
D|----------8----------------|---11-----10-----------------------|
A|---------------------------|-----------------------------------|
E|---------------------------|-----------------------------------|
 
  F#          G#            C#         A#m
e|-----6------8--8----8-----9-|---9--9------9--------------------|
B|-----7------9--9----------9-|---9----9h11---11--11-9-----------|
G|-----6------8--8--8------10-|--10--------------------10--------|
D|8---------------------------|----------------------------------|
A|----------------------------|----------------------------------|
E|----------------------------|----------------------------------|

    D#m           G#             C#     G#     A#m                
e|---6--6---------8--8----8--|------------------6----------------|
B|---7--7---------9--9-------|----9------9------6----6-----------|
G|---8--8-6-------8--8--8----|---10------8------6----6h8----6h8p6|
D|----------8----------------|---11-----10-----------------------|
A|---------------------------|-----------------------------------|
E|---------------------------|-----------------------------------|
  
  F#          G#           
e|-----6------8-----------|
B|-----7------9-----------|
G|-----6------8-----------|
D|8-----------------------|
A|------------------------|
E|------------------------|


[Solo]

I haven't tabbed the first short solo because Max uses this little finger thing to make some cool slides 
and since I cannot make those it wouldn't make much sense to tab it... But the chords go C# A#m


[Verse]

      C#            A#m                                 
e|-------1-----4/6--|---1--------------------|
B|-------2-----4/6--|---2------2-1-----------|
G|-------1----------|---3----------3-1-----1-|
D|-------3----------|---3--------------1h3---|
A|--4-4--4----------|---1--------------------|
E|------------------|------------------------|

   C#                  A#m                               
e|-------1-----4/6---|--1---------1---------------------|
B|-------2-----4/6---|--2-----2h4---4-2p1---------------|
G|-------1-----------|--3-----------------3p1-----------|
D|-------3-----------|--3---------------------3p1---1h3-|
A|-4-4---4-----------|--1-------------------------4-----|
E|-------------------|----------------------------------|

      C#               A#m                                 
e|-------1-----4/6--|---1--------------------|
B|-------2-----4/6--|---2------2-1-----------|
G|-------1----------|---3----------3-1-----1-|
D|-------3----------|---3--------------1h3---|
A|--4-4--4----------|---1--------------------|
E|------------------|------------------------|

         C#            A#m                                 
e|-------1-----4/6--|---1---------------|
B|-------2-----4/6--|---2------2----2-1-|
G|-------1----------|---3---------------|
D|-------3----------|---3---------------|
A|--4-4--4----------|---1---------------|
E|------------------|-------------------|


[Chorus]

    D#m           G#             C#          G#          A#m                
e|---6--6---------8--8----8--|------9-----------8----------6------------|
B|---7--7---------9--9-------|--------9-----------9----------6----------|
G|---8--8-6-------8--8--8----|----------10----------8--------6h8---6h8p6|
D|----------8----------------|-9/11----------10----------8--------------|
A|---------------------------|------------------------------------------|
E|---------------------------|------------------------------------------|

  F#              G#                 C#
e|---------6---------4-----------8----9--|
B|-----------7---------4--------------9--|
G|-------------6---------5---5/8-----10--|
D|8----6/8---------6---------------------|
A|---------------------------------------|
E|---------------------------------------|

   A#m
e|---9--9------9--------------------|
B|---9----9h11---11--11-9-----------|
G|--10--------------------10--------|
D|----------------------------------|
A|----------------------------------|
E|----------------------------------|

    D#m           G#             C#          G#          A#m                
e|---6--6---------8--8----8--|------9-----------8----------6------------|
B|---7--7---------9--9-------|--------9-----------9----------6----------|
G|---8--8-6-------8--8--8----|----------10----------8--------6h8---6h8p6|
D|----------8----------------|-9/11----------10----------8--------------|
A|---------------------------|------------------------------------------|
E|---------------------------|------------------------------------------|

    F#          G#
e|--6--6--6--6--8--8--8--8---------|
B|--7--7--7--7--9--9--9--9---------|
G|--6--6--6--6--8--8--8--8---------|
D|--8--8--8--8-10-10-10-10---------|
A|---------------------------------|
E|---------------------------------|


[Solo]

   A#m                               C#                              A#m
e|----------------------------------|-------------------------------|----------------------------------------|
B|------------------------------9-11|9b11-----7b8br7------6b7br7----|-----9------------9--------9--9---6-----|
G|-------------------------8-10-----|----------------------------8-6|8/10---10----8/10---10----10-10---8---6-|
D|-11b12br11-----11b12br11----------|-------------------------------|----------------------------------------|
A|----------------------------------|-------------------------------|----------------------------------------|
E|----------------------------------|-------------------------------|----------------------------------------|
  C#                                A#m                    C#
e|--------------------------------|-----------------------|----------------------------------|
B|--------------------------------|-----------------------|------------------------------9---|
G|-------------------------6------|-----------------------|-----------------------6-8/10---8-|
D|-8p6-6---------------6h8---8-6--|----8-8---6-8-6-8---6-8|-6-----------------6-8------------|
A|-----------------6h8------------|-----------------------|----8-8------6-8-9----------------|
E|-------------6h9----------------|-----------------------|----------------------------------|
  A#m                       C#
e|-------------------------|------------------------------|
B|-------------------------|-----------------------6-7----|
G|-6-6----8p6-6------8p6---|6------------------6-8--------|
D|-----------------------8-|---------------6-8------------|
A|-------------------------|-------------8----------------|
E|-------------------------|------------------------------|


[Chorus]

    D#m           G#             C#          G#          A#m                
e|---6--6---------8--8----8--|------9-----------8----------6------------|
B|---7--7---------9--9-------|--------9-----------9----------6----------|
G|---8--8-6-------8--8--8----|----------10----------8--------6h8---6h8p6|
D|----------8----------------|-9/11----------10----------8--------------|
A|---------------------------|------------------------------------------|
E|---------------------------|------------------------------------------|

  F#              G#                 C#
e|---------6---------4-----------8----9--|
B|-----------7---------4--------------9--|
G|-------------6---------5---5/8-----10--|
D|8----6/8---------6---------------------|
A|---------------------------------------|
E|---------------------------------------|

    A#m
e|--9----------------------------------|
B|--9----------------------------6-9-7-|
G|--10------10b11br10-8b9br8-6-8-------|
D|-------------------------------------|
A|-------------------------------------|
E|-------------------------------------|

    D#m           G#             C#          G#          A#m                
e|---6--6---------8--8----8--|------9-----------8----------6------------|
B|---7--7---------9--9-------|--------9-----------9----------6----------|
G|---8--8-6-------8--8--8----|----------10----------8--------6h8---6h8p6|
D|----------8----------------|-9/11----------10----------8--------------|
A|---------------------------|------------------------------------------|
E|---------------------------|------------------------------------------|

    F#          G#
e|--6--6--6--6--8----|
B|--7--7--7--7--9----|
G|--6--6--6--6--8----|
D|--8--8--8--8-10----|
A|-------------------|
E|-------------------|




************************************

| h   Hammer-on
| p   Pull-off
| b   Bend
| br  Bend release
| /   Slide up

************************************

            
            
Suggest correction
Creating personal tab
Creating personal tab
You can edit any tab online and save it as your Personal.

You can edit, replace or remove any tab part or add personal notes – all changes will be seen only by you.

Personal tabs can be accessed anytime from any device, even offline.
Learn more »
comments
print report bad tab
guest
You may want to rate the tab now too:
select rating
Wanna post a correction for this tab? Suggest correction