Oops, an error
Loading. Please wait.
We have Chord Pro version of No Woman.
It's the closest thing you can get to the original song and it has interactive parts. Check out the tab »
×
by whitney
40,090 views 405 this week
4 commentsread comments
1 2 3 4 5
x 53
add to favorites
×
Save as Personal and add changes to this tab that will be seen only by you. Learn more ›
×
You can save this tab as Personal to edit and correct it or add notes. All changes will be seen only by you. Learn more »
launch autoscroll
font size
0
reset
transpose
0
reset
display chords
guitar tuner
edit
Autoscroll
slow
fast
+/-
esc
set tempo
stop
Author
Strumming
There is no strumming pattern for this song yet. and get +5 IQ
Whitney
No Woman

Standard Tuning

[Verse 1]

Em                     A
I left drinking on the city train,
                          G
to spend some time on the road
Em                      A
Then one morning I woke up in L.A.
                        G
Caught my breath on the coast
Em                        A
I've been going through a change
                 G
I might never be sure
Em                    A
I'm just walking in a haze
                 G
I'm not ready to turn


[Chorus]

Em      D
No woman
Em      D
No Woman...


[Verse 2]

Em                           A
Midnight driving through the bay,
                  G
going back on the road
Em              A
Coming up and I wish I could stay
                   G
I've been sleeping alone
Em                        A
I've been going through a change
                 G
I might never be sure
Em                    A
I'm just walking in a haze
                 G
I'm not ready to turn


[Chorus]

Em      D
No woman
Em      D
No Woman...


[Outro]

Em                     A
I left drinking on the city train,
                          G
to spend some time on the road...

            
            
Suggest correction
Creating personal tab
Creating personal tab
You can edit any tab online and save it as your Personal.

You can edit, replace or remove any tab part or add personal notes – all changes will be seen only by you.

Personal tabs can be accessed anytime from any device, even offline.
Learn more »
comments
print report bad tab
4 comments total. Showing first comments.
+1 reply
schim94 10 May 11, 2016 12:14 PM

Verse should be Em-A6-A-GMaj7

+1 reply
GeorgeWeston 354 Jun 12, 2016 07:09 AM

E|--------2-----------------2----------------2-----------------2----------------|
B|------3---3h5p3-0-------3---3h5-3h5------3-----------------3---2h3p2-0-2------|
G|----0-------------2---0-----2---2------2-----2h4-2h4p2---2---------------2h4--|
D|--2-----------------2----------------0-------2---2-----0----------------------|
A|------------------------------------------------------------------------------|
E|------------------------------------------------------------------------------|

+1 reply
JackieJoyner 112 Jul 17, 2016 02:41 PM

From looking at this video: https://www.youtube.com/watch?v=D086lzKbcmo
I believe the lick is:

E|---------------------------------------------------------------------:
B|--------7---------------7--------------------------------------------:
G|----------9-7h9p7------7--7h9-7h9-------7-7---7------7--6h7p6-6------:
D|------9----------9-7--9---7---7-------7---7h9-7h9---7--------9-------:
A|-7-10---------------10--------------9--------------9-----------7h9p7-:
E|----------------------------------10-------------10------------------:

guest
You may want to rate the tab now too:
select rating
Wanna post a correction for this tab? Suggest correction