Oops, an error
Loading. Please wait.

Greatest Love Of All Tab

version 1
version 1

Whole song

Interactive

3,470 views 21 this week
no commentswrite comment
1 2 3 4 5
excellent!
x 1
add to favorites
launch autoscroll
font size
0
reset
how to read this tab
guitar tuner
Tab Pro tools
  • play this tab
  • loop segment
  • change instrument
  • show fretboard
  • metronome
×
Best way to learn
"Greatest Love Of All"
Autoscroll
slow
fast
+/-
esc
set tempo
stop
Contributor
Intro: Keyboard


verse:1 keyboard only



Verse 2:

     A      Aaug or A+5   A6        A7             D         Daug or D+5    D6         Daug or D+5
 
e----0-------1--------|----2---------3--------|-----2----------2-------|-----2----------2-------|
B----2-------2--------|----2---------2--------|-----3----------3-------|-----3----------3-------|
G----2-------2--------|----2---------2--------|-----2----------3-------|-----4----------3-------|
D----2----------------|-----------------------|-----0----------0-------|-----0----------0-------|
A----0-------0--------|----0---------0--------|------------------------|------------------------|
E---------------------|-----------------------|------------------------|------------------------|
    
    C#m7    F#m7          Bm7      E7sus4+9

e----4-------2--------|----2---------5--------|
B----5-------2--------|----3---------7--------|
G----4-------2--------|----2---------7--------|
D----6-------2--------|----4------------------|
A----4-------4--------|----2---------7--------|
E------------2--------|-----------------------|

Chorus:
     
     D      C#m           Bm7      E7sus4+9
     
e----5-------4--------|----2---------5--------|
B----7-------5--------|----3---------7--------|
G----7-------6--------|----2---------7--------|
D----7-------6--------|----4------------------| X3
A----5-------4--------|----2---------7--------|
E---------------------|-----------------------|

    C#m7    F#m7          Bm7   E7sus4+9  E/D  

e----4-------2--------|----2---------5---4----|
B----5-------2--------|----3---------7---5----|
G----4-------2--------|----2---------7---4----|
D----6-------2--------|----4------------------| X2
A----4-------4--------|----2---------7---5----|
E------------2--------|-----------------------|

    C#m7    F#m7          Bm7      E7sus4+9       A

e----4-------2--------|----2---------5--------|---5--------------------|
B----5-------2--------|----3---------7--------|---5--------------------|
G----4-------2--------|----2---------7--------|---6--------------------|
D----6-------2--------|----4------------------|---7--------------------|
A----4-------4--------|----2---------7--------|---7--------------------|
E------------2--------|-----------------------|---5--------------------|


Distortion on

     F#      B             E         A

e---------------------|-----------------------| 
B---------------------|-----------------------|
G------------4--------|----9------------------|
D----4-------4--------|----9---------7--------| X2
A----4-------2--------|----7---------7--------| 
E----2----------------|--------------5--------|

     F#      B             E         A            D

e---------------------|-----------------------|-----------------------|  
B---------------------|-----------------------|-----------------------| 
G------------4--------|----9------------------|---7-------------------| 
D----4-------4--------|----9---------7--------|---7-------------------| 
A----4-------2--------|----7---------7--------|---5-------------------| 
E----2----------------|--------------5--------|-----------------------| 




Verse 3:
     A      Aaug or A+5   A6        A7             D         Daug or D+5    D6         Daug or D+5
 
e----0-------1--------|----2---------3--------|-----2----------2-------|-----2----------2-------|
B----2-------2--------|----2---------2--------|-----3----------3-------|-----3----------3-------|
G----2-------2--------|----2---------2--------|-----2----------3-------|-----4----------3-------|
D----2----------------|-----------------------|-----0----------0-------|-----0----------0-------|
A----0-------0--------|----0---------0--------|------------------------|------------------------|
E---------------------|-----------------------|------------------------|------------------------|
    
    C#m7    F#m7          Bm7        E             C#m7       F#m7          Bm7      E7sus4+9

e----4-------2--------|----2---------4--------|-----4----------2-------|-----2----------5-------|
B----5-------2--------|----3---------5--------|-----5----------2-------|-----3----------7-------|
G----4-------2--------|----2---------4--------|-----4----------2-------|-----2----------7-------|
D----6-------2--------|----4---------6--------|-----6----------2-------|-----4------------------|
A----4-------4--------|----2---------7--------|-----4----------4-------|-----2----------7-------|
E------------2--------|-----------------------|----------------2-------|------------------------|


Chorus:
     
     D      C#m           Bm7      E7sus4+9
     
e----5-------4--------|----2---------5--------|
B----7-------5--------|----3---------7--------|
G----7-------6--------|----2---------7--------|
D----7-------6--------|----4------------------| X3
A----5-------4--------|----2---------7--------|
E---------------------|-----------------------|
   
    C#m7    F#m7          Bm7   E7sus4+9  E/D  

e----4-------2--------|----2---------5---4----|
B----5-------2--------|----3---------7---5----|
G----4-------2--------|----2---------7---4----|
D----6-------2--------|----4------------------| X2
A----4-------4--------|----2---------7---5----|
E------------2--------|-----------------------|

    C#m7    F#m7          Bm7      E7sus4+9       A

e----4-------2--------|----2---------5--------|---5--------------------|
B----5-------2--------|----3---------7--------|---5--------------------|
G----4-------2--------|----2---------7--------|---6--------------------|
D----6-------2--------|----4------------------|---7--------------------|
A----4-------4--------|----2---------7--------|---7--------------------|
E------------2--------|-----------------------|---5--------------------|


Distortion on

     F#      B             E         A

e---------------------|-----------------------| 
B---------------------|-----------------------|
G------------4--------|----9------------------|
D----4-------4--------|----9---------7--------| X2
A----4-------2--------|----7---------7--------| 
E----2----------------|--------------5--------|

     F#      B             E         A            D     E7sus4+9  E/D

e---------------------|-----------------------|---------------5---4---|  
B---------------------|-----------------------|---------------7---5---| 
G------------4--------|----9------------------|---7-----------7---4---| 
D----4-------4--------|----9---------7--------|---7-------------------| 
A----4-------2--------|----7---------7--------|---5-----------7---5---| 
E----2----------------|--------------5--------|-----------------------|  

    C#m7    F#m7          Bm7   E7sus4+9   E/D  

e----4-------2--------|----2---------5---4----|
B----5-------2--------|----3---------7---5----|
G----4-------2--------|----2---------7---4----|
D----6-------2--------|----4------------------| X2
A----4-------4--------|----2---------7---5----|
E------------2--------|-----------------------|

    C#m7    F#m7          Bm7       E7sus4+9  

e----4-------2--------|----2---------5--------|
B----5-------2--------|----3---------7--------|
G----4-------2--------|----2---------7--------|
D----6-------2--------|----4------------------| 
A----4-------4--------|----2---------7--------|
E------------2--------|-----------------------|

     D      C#m          Bm7 E7sus4+9  A

e----5-------4--------|----2---5-----5--------| 
B----7-------5--------|----3---7-----5--------|
G----7-------6--------|----4---7-----6--------|
D----7-------6--------|----4---------7--------|
A----5-------4--------|----2---7-----7--------|
E---------------------|--------------5--------|
comments
We did not receive enough feedback on this tab! Please rate:
print report bad tab
1 2 3 4 5
I want to post or [tab]
guest
You may want to rate the tab now too:
select rating
Please do not post tabs as comments. Select "correction" instead!