Oops, an error
Loading. Please wait.

I Will Always Love You Tab

version 2
version 2

Whole song

Interactive

4,177 views 33 this week
3 commentsread comments
1 2 3 4 5
excellent!
x 8
add to favorites
launch autoscroll
font size
0
reset
how to read this tab
guitar tuner
Autoscroll
slow
fast
+/-
esc
set tempo
stop
Help us to improve Ultimate-Guitar.com Take our survey!
×
Author
-----------------------------------------------------------------------------
                I Will Always Love You - Whitney Houston
-----------------------------------------------------------------------------
Tabbed By: Fabio BlenderBR
 - Give your rating and help others users to find the best versions of the songs - 


Verse:
   A     E     A
If I, should stay
         F#m      E
I would only be in
     D   E
Your way
      A   E      A
So I go, but I know
      F#m                   E
I'll think of you, every step
        D  E
Of the way


Chorus:
    A F#m D      E
And i-i-i-i will always
      A F#m    D       E             A
Love you, you, I, will always love you
F#m       E
You, my darling you


Verse:
      A    E      A
Bittersweet, memories

Play after "Memories"
e|-------------------|
B|---2---------------|
G|-2-----------------|
A|-----2-------------|
D|-------------------|
E|-------------------|
          F#m
That's all I, am taking
     D E
With me
        A     E       A
So goodbye, please don't cry
        F#m         E
We both know, I'm not
           D E
What you need


Play during "We both know i'm not..."
e|--------------------------3------------|
B|---2--------2--------------2-----------|
G|--2----------2----1-----2---------1----|
A|-2---2-------------2--0------------2---|
D|----------4-----2---------------2------|
E|--------2------0--------------0--------|
   A     F#m     E     D       E


Chorus:
    A F#m D      E
And I-I-I-I will always
      A F#m    D       E            A
Love you, you, I, will always love you


Solo:
A F#m E D E    x2

e|---------------------------------------------------------------------------------------------|
B|--12h14-14b-14b-14b-14b---12h14p12-10b-10b-10b-10b--10/12~--12-10~--7h9p7--------------------|
G|-------------------------------------------------------------------------11p9----7---7--9~---|
D|-------------------------------------------------------------------------------9-------9-----|
A|---------------------------------------------------------------------------------------------|
E|---------------------------------------------------------------------------------------------|

e|----------------------------------------------------------------------------12h14b-14b-14b---|
B|--12h14-14b-14b-14b-14b-12h14p10-12b-12b-12b-12b-12h14p12-10-10-10-10--12h14-----------------|
G|---------------------------------------------------------------------------------------------|
D|---------------------------------------------------------------------------------------------|
A|---------------------------------------------------------------------------------------------|
E|---------------------------------------------------------------------------------------------|

e|-12h14p12------------------------------------------------------------------------------------|
B|----------14-14-14-14-14h15p14-12-12-12h14p12------------------------------------------------|
G|----------------------------------------------11~--11-12h14-9--------------------------------|
D|---------------------------------------------------------------------------------------------|
A|---------------------------------------------------------------------------------------------|
E|---------------------------------------------------------------------------------------------|



Verse:
   A          E           A
I hope, life treats you kind
       F#m            E
And I hope, you have all
               D E
You've dreamed of
                   A    E   A
And I wish to you joy, and happines
          F#m      E
But above all of this
             D E
I wish you love


Chorus:
    B G#m E     F#m            B
And I-I-I-I will always love you
G#m E        F#m          B
I-I-I, will always love you
G#m   E       F#m          B
You, I, will always love you
G#m   E       F#m          B
You, I, will always love you

G#m   E       F#m          B
You, I, will always love you

e|-----------------------------------------|
B|--14h16p14-16b-16b-16b-16b---------------|
G|-----------------------------------------|
D|-----------------------------------------|
A|-----------------------------------------|
E|-----------------------------------------|

G#m   E       F#m          B
You, I, will always love you

e|---------------------------|
B|--14h16p14-12--------------|
G|---------------------------|
A|---------------------------|
D|---------------------------|
E|---------------------------|

----
~ = Vibrato
/ = up slide
h = hammer on
p = pull off

Enjoy !
Suggest correction
comments
print report bad tab
3 comments total.
+1 reply
cristy♥twilight 5,871 wrote on June 20 2014, 12:40 am

Great job!

0 reply
JN1997 155 wrote on May 16 2015, 06:08 am

is it possible for you to put up a full tab piece, with all the tabliature for the notes Whittney sings?

great job

0 reply
hgdesampa 10 wrote on August 12 2015, 01:42 pm

In end of chorus the chord is F#. There isn't F#m.

guest
You may want to rate the tab now too:
select rating
Please do not post tabs as comments. Select "correction" instead!