Oops, an error
Loading. Please wait.

Aaron Abraham Murs Tab

541 views 3 this week
1 commentread comment
1 2 3 4 5
please rate
add to favorites
launch autoscroll
font size
0
reset
how to read this tab
guitar tuner
Autoscroll
slow
fast
+/-
esc
set tempo
stop
Help us to improve Ultimate-Guitar.com Take our survey!
×
e--------------------------------------------------------------------|
B--------------------------------------------------------------------|
G--------------------------------------------------------------------|
D---4-6---------------4-6---7-6-4------4-6-----------4-6-------------|
A-7-----7---4---6---7-----7-------6--7-----7--4--6-7-----7-----4---6-|
E-0~------5---7-----0~---------------0~------5--7--0-------5-5---7---|

e----------------------------------|
B-9-9-9-9-9-9-9-9------------------|
G-9-9-9-9-9-9-9-9-6-6-6-6-6-6-6-6--|
D-9-9-9-9-9-9-9-9-7-7-7-7-7-7-7-7--|
A-7-7-7-7-7-7-7-7-7-7-7-7-7-7-7-7--|
E-----------------5-5-5-5-5-5-5-5--|
"Feels like i mighta got a contact high"

Strum Pattern: Beat Beat Strum Knock Strum

This is some raw shit from Aaron and Murs,saw it on youtube and learned it.Questions 
email me TayMike716@yahoo.com

Tabbed by Mike Andriaccio, Buffalo Ny
Suggest correction
Give kudos to tab author, rate the tab!
1 2 3 4 5
comments
print report bad tab
1 comment total.
0 reply
Imme94 60 wrote on January 10 2010, 11:10 pm

Awesome dude! Spot on. Fun to play too! Gotta love the video.

guest
You may want to rate the tab now too:
select rating
Please do not post tabs as comments. Select "correction" instead!