Oops, an error
Loading. Please wait.

Bombs Away Bass Tab

1,756 views 9 this week
no commentswrite comment
1 2 3 4 5
please rate
add to favorites
launch autoscroll
font size
0
reset
guitar tuner
Tab Pro tools
  • play this tab
  • loop segment
  • change instrument
  • show fretboard
  • metronome
×
Best way to learn
"Bombs Away"
Autoscroll
slow
fast
+/-
esc
set tempo
stop
Contributor
This tab is for the bass part played for the intro, verse and solo.

G|------5------5------5-------5-------5-------5-------7-------7--------------------|
D|--7------7------7--------7-------7-------7-------9-------9-----------------------|
A|---------------------------------------------------------------------------------|
E|---------------------------------------------------------------------------------|


G|------9---------9---------9----------9---------9----------9---------9----------9--|
D|--11--------11--------11--------11--------11----------11---------11---------11----|
A|----------------------------------------------------------------------------------|
E|----------------------------------------------------------------------------------|

G|-------7--------7--------7--------7--------7--------7--------7--------7------------|
D|----9--------9--------9--------9--------5--------5--------5--------5---------------|
A|-----------------------------------------------------------------------------------|
E|-----------------------------------------------------------------------------------|

G|-------5--------5--------5--------5--------5--------5--------5--------5---------|
D|---3--------3--------3--------3--------3--------3--------3--------3-------------|
A|--------------------------------------------------------------------------------|
E|--------------------------------------------------------------------------------|
comments
We did not receive enough feedback on this tab! Please rate:
print report bad tab
1 2 3 4 5
I want to post or [tab]
guest
You may want to rate the tab now too:
select rating
Please do not post tabs as comments. Select "correction" instead!