Oops, an error
Loading. Please wait.

Bombs Away Tab

428 views 1 this week
no commentswrite comment
1 2 3 4 5
2 more votes to show rating
add to favorites
launch autoscroll
font size
0
reset
how to read this tab
guitar tuner
Autoscroll
slow
fast
+/-
esc
set tempo
stop
Help us to improve Ultimate-Guitar.com Take our survey!
×
Author
Difficulty
Tuning
intermediate
D A D G B E
I play in drop D, but you can play it in standard if you want, just transpose the lower 
D string... well you know how.

[Intro]

e---------------------------------------------------|
b---------------------------------------------------|
g---5--7--9-----------------------------------------|
d-7----------9---5\7---2----------------------------|
a---------------------------------------------------|
D---------------------------------------------------|

[Verse 1]
e--------------------------------------------------------------------------|
b--------------------------------------------------------------------------|
g--------------------------------------------------------------------------|
d--------------------------------------------------------------------------|
a---3---3---3---3---3---3----5---5----7----7----7----7---7----7----7----7--|
D-7---7---7---7---7---7----9---9---10---10---10---10---10--10---10---10----|


e------------------------------------------------------------------------|
b------------------------------------------------------------------------|
g------------------------------------------------------------------------|
d------------------------------------------------------------------------|
a---5---5---5---5----8----8----8----8----3---3---3---3---3---3---3---3---|
D-9---9---9---9--/12---12---12---12----\3--3---3---3---3---3---3---3-----|

[Chorus} X2
e--------------------------------------------|
b--------------------------------------------|
g-5-5------7-7------9-9------10-10-----------|
d-5-5------5-5------7-7------9--9------------|   X2
a-3-3-3333-3-3-3333-5-5-5555-7--7--7777------|
D--------------------------------------------|

e--------------------------------------------|
b--------------------------------------------|
g-5-5------5-5------4-4------4-4-------------|  X2
d-5-5------5-5------4-4------4-4-------------|
a-3-3-3333-3-3-3333-3-3-3333-3-3-3333--------|
D--------------------------------------------|

[Verse 2]
e---------------------------------------------------------------|
b---------------------------------------------------------------|
g---------------------------------------------------------------| Rhythm is easy to
d---------------------------------------------------------------| figure out.
a-7-7-7-7-7-7-7-7------7-7-7-7-7-7-5-5-5-5----------------------|
D-7-7-7-7-7-7-7-7------7-7-7-7-7-7-5-5-5-5----------------------|

Go get your guns
Go get your knives
Go have some fun
Go take a life
Cause it is necessary
When they come
You watch 'em try
To flee and run
But they don't die
Cause it is necessary
When it's done
Look in my eyes
And give me one
Good reason why
You think it's necessary
Maybe some
Deserve the strife
But are none
To go decide
If it is necessary

Their guns are firing, firing
Their guns are firing
Bombs away
The shrapnel falls like stars
It washes away who we are

Their guns are firing, firing
Their guns are firing
Bombs away
The shrapnel falls like stars
It washes away who we are

You hear the shots (Yeah)
There goes another one
Don't call the cops (Yeah)
Go get your fucking gun
Ready or not (Yeah)
No warning when they come
Get or get got (Yeah)
It's time to fight or run
Somebody's hit (Yeah)
They seen 'em hit the ground
Who gives a shit (Yeah)
He's just a victim now
No candles lit (Yeah)
Darkness is all around
Put up your fist (Yeah)
Show them you'll stick around

Their guns are firing, firing
Their guns are firing
Bombs away
The shrapnel falls like stars
It washes away who we are

Their guns are firing, firing
Their guns are firing
Bombs away
The shrapnel falls like stars
It washes away who we are

Yeah
Yeah
Yeah
Yeah

Their guns are firing, firing
Their guns are firing
Bombs away
The shrapnel falls like stars
It washes away who we are

Their guns are firing, firing
Their guns are firing
Bombs away
The shrapnel falls like stars
It washes away who we are

Bombs away
Bombs away
Suggest correction
Give kudos to tab author, rate the tab!
1 2 3 4 5
comments
print report bad tab
guest
You may want to rate the tab now too:
select rating
Wanna post a correction for this tab? Suggest correction