Oops, an error
Loading. Please wait.

Catch 22 Bass Tab

733 views 3 this week
no commentswrite comment
1 2 3 4 5
please rate
add to favorites
launch autoscroll
font size
0
reset
guitar tuner
Autoscroll
slow
fast
+/-
esc
set tempo
stop
Help us to improve Ultimate-Guitar.com Take our survey!
×
Author
Song: Catch 22
Band: Whole Wheat Bread

                                 Intro:
G|------------------------------------------------------------------------|
D|------------------------------------------------------------------------|
A|--------------------44-33-00----------------------44-33-00--------------|
E|-2222---222---2----------------2222---222--2----------------------------|

G|-7777-777--799---77--55-------------------------------------------------|
D|--------------------------------55--44--33--22--33--22--11--00----------|
A|------------------------------------------------------------------------|
E|------------------------------------------------------------------------|

                                 Verse:
G|------------------------------------------------------------------------|
D|------------------------------------------------------------------------|
A|-----------------44-33-00-----------------44-33-00----------------------|
E|-2222---222---2----------------2222---222--2----------------------------|

G|---7777--777--799--77--55-------------------------------------------------|
D|----------------------------------55--544--433--322-----------------------|
A|--------------------------------------------------------------------------|
E|--------------------------------------------------------------------------|

                            Prechorus:
G|------------------------------------------------------------------------|
D|------------------------------------------------------------------------|
A|------------------44--44--444--44--46-66-666--66-68--88--8--55-44-33-22-|
E|-2--22--22--222---------------------------------------------------------|
Suggest correction
Give kudos to tab author, rate the tab!
1 2 3 4 5
comments
print report bad tab
guest
You may want to rate the tab now too:
select rating
Wanna post a correction for this tab? Suggest correction