Oops, an error
Loading. Please wait.

Feel Like Shit Tab

version 1
version 1

Live

Whole song

323 views 1 this week
1 commentread comment
1 2 3 4 5
please rate
add to favorites
launch autoscroll
font size
0
reset
how to read this tab
guitar tuner
Autoscroll
slow
fast
+/-
esc
set tempo
stop
Help us to improve Ultimate-Guitar.com Take our survey!
×
Artist: Whole Wheat Bread
Song: Feel Like Shit (Live)
Tab by: Punk Guitar (sebenz2000@hotmail.com)


This tab is probably not 100% right, but it sounds preety damn good to me.
Any questions, suggestions, and concerns, feel free to e-mail me.
... If you think i did a good job, please rate the tab and, if u can, leave a thank you ^^

Regular Tuning [EADGBe]

-=Intro/Outro=-
e|-------------------------------------------------------|
B|--------------------55445-----------------------55445--|
G|-88988\66866\444444444444--1111998\66866\444444444444--|
D|-99999-44444-222222222222--9-9-999-44444-222222222222--|  x2
A|-------------------------------------------------------| 
E|-------------------------------------------------------|

-=Verse 1=-
e|--------------------------------------|
B|--------------------------------------|
G|-4-444444-----------------------------|
D|-4-444444-4-444444-2-222222-4-444444--|  x2
A|-2-222222-4-444444-2-222222-4-444444--|
E|----------2-222222-0-000000-2-222222--|
PM:  ......   ......   ......   ......

 
e|-----------------------------------|
B|-----------------------------------|
G|-----------------------------------|
D|-6-666666-4-444444-2-222222-4-444444--|  x2
A|-6-666666-4-444444-2-222222-4-444444--|
E|-4-444444-2-222222-0-000000-2-222222--|
PM:  ......   ......   ......   ......

 
*Let ring:
e|----------------------|
B|----------------------|
G|----------4--3~-------|
D|-2~-------------4~----|  
A|-2~-------------------|
E|-0~----(0)------------|

-=Pre-Chorus=-
e|------------------|
B|------------------|
G|-444--------------|
D|-222-444-444-444--| x3
A|-----444-222-444--|
E|------------------|
PM:..  ..  ..  ..

 
e|-----------------------|
B|-----------------------|
G|--9-9-8-8-6-6-4-4-4-4--|
D|--9-9-8-8-6-6-4-4-4-4--| 
A|--7-7-6-6-4-4-2-2-2-2--|
E|-----------------------|
The only thing...
 
-=Chorus=-
e|-----------------------------------|
B|-----------------------------------|
G|---------4-4-4-4-------------------|
D|-2-2-2-2-4-4-4-4-6-6-6-6-4-4-4-4---|  x3
A|-2-2-2-2-2-2-2-2-6-6-6-6-4-4-4-4---|
E|-0-0-0-0---------4-4-4-4-2-2-2-2---|
Good-bye...
 
e|------------------------|
B|------------------------|
G|------------------------|
D|-2222222244444444-------|  
A|-2222222244444444-------|
E|-0000000022222222-------|
PM:..................
    For you...
 
-=Verse 2=-
e|----------------------------------|
B|-----334-----334-----334-----334--|
G|-444------------------------------|
D|-444-----444-----222-----444------|x2
A|-222-----444-----222-----444------|
E|---------222-----000-----222------|

e|-----------------------------|
B|-----------------------------|
G|-----------------------------|
D|-6-4-4444442-2222224-444444--|  x2
A|-6-4-4444442-2222224-444444--|
E|-4-2-2222220-0000002-222222--|

 
-=Pre-Chorus=-

 
-=Chorus=-

 
-=Bridge=- [PM]
e|-------------------------------------|
B|-------------------------------------|
G|----------66666666-4444444444444444--|
D|-44444444-44444444-2222222222222222--| 
A|-22222222----------------------------|
E|-------------------------------------|
I hope you cry...

e|-----------------------------|
B|-----------------------------|
G|----------66666666-4X--------|
D|-44444444-44444444-2X--------| 
A|-22222222--------------------|
E|-----------------------------|
I hope you feel...

 
-=Solo=-

e|----------|    
B|----------|    
G|----------|    
D|-88899999-| x8 
A|-99999999-|    
E|----------|    

e|-----------------------------------------|
B|-----------------------------------------|
G|-88899999-88899999-88899999-11111199999--|
D|-99999999-99999999-99999999-9-9-9-99999--|
A|-----------------------------------------|
E|-----------------------------------------|

e|----------|    
B|----------|    
G|----------|    
D|-88899999-| x4
A|-99999999-|    
E|----------|


e|------------------|
B|------------------|
G|-------4~---------|
D|-2~----4~----4~~--| x3 
A|-2~----2~----4~~--|
E|-0~----------2~~--|

e|-------------------------------|
B|-------------------------------|
G|-------4~----------------------|
D|-2~----4~----4444444444444444--|  
A|-2~----2~----4444444444444444--|
E|-0~----------2222222222222222--|
PM:            ................


-=Outro=-


LAYOUT:
Intro
Verse 1
Pre-Chorus
Chorus
Verse 2
Pre-Chorus
Chorus
Bridge
Solo
Outro

Hope it helps ^^

-Laters...
Suggest correction
Give kudos to tab author, rate the tab!
1 2 3 4 5
comments
print report bad tab
1 comment total.
0 reply
tyfighter 10 wrote on May 23 2007, 08:33 pm

Great tab. Any chance you can tab Fuck You?

guest
You may want to rate the tab now too:
select rating
Wanna post a correction for this tab? Suggest correction