Oops, an error
Loading. Please wait.

Feel Like Shit Tab

version 1
version 1

Whole song

1,357 views 1 this week
2 commentsread comments
1 2 3 4 5
please rate
add to favorites
launch autoscroll
font size
0
reset
how to read this tab
guitar tuner
Autoscroll
slow
fast
+/-
esc
set tempo
stop
Help us to improve Ultimate-Guitar.com Take our survey!
×
Difficulty
intermediate
Whole Wheat Bread
Feel Like Shit
Transcribed by Vennie
 
Intro
*Chords implied by bass
   E       B       F#
e|------------------------------------|
B|------------------------------------|
G|---4433----4433----4433----4433-----|
D|-22----44------44------44------44---|  x4
A|---------22-------------------------| 
E|-----------------22------22---------|

Verse 1
e|-----------------------------------|
B|-----------------------------------|
G|-4-444444--------------------------|
D|-4-4444444-4444442-2222224-444444--|  x2
A|-2-2222224-4444442-2222224-444444--|
E|---------2-2222220-0000002-222222--|
PM:  ......  ......  ......  ......
Why should I propose 
 
e|-----------------------------------|
B|-----------------------------------|
G|-----------------------------------|
D|-6-6666664-4444442-2222224-444444--|  x2
A|-6-6666664-4444442-2222224-444444--|
E|-4-4444442-2222220-0000002-222222--|
PM:  ......  ......  ......  ......
Do you like the way
 
*Let ring:
e|----------------------|
B|----------------------|
G|----------4--3~-------|
D|-2~-------------4~----|  
A|-2~-------------------|
E|-0~----(0)------------|
Pre-Chorus
e|------------------|
B|------------------|
G|-444--------------|
D|-222-444-444-444--| x3
A|-----444-222-444--|
E|------------------|
PM:..  ..  ..  ..
Take your bullshit...
 
e|------------------|
B|------------------|
G|-4-4-6-6-4-4-4-4--|
D|-2-2-6-6-4-4-4-4--| 
A|-----4-4-2-2-2-2--|
E|------------------|
The only thing...
 
Chorus
e|-----------------------------------|
B|-----------------------------------|
G|---------4-4-4-4-------------------|
D|-2-2-2-2-4-4-4-4-6-6-6-6-4-4-4-4---|  x3
A|-2-2-2-2-2-2-2-2-6-6-6-6-4-4-4-4---|
E|-0-0-0-0---------4-4-4-4-2-2-2-2---|
Good-bye...
 
e|------------------------|
B|------------------------|
G|------------------------|
D|-2222222244444444-------|  
A|-2222222244444444-------|
E|-0000000022222222-------|
PM:..................
    For you...
 
Verse 2:
Same as verse 1
 
Pre-Chorus
 
Chorus
 
Bridge
e|-------------------------------------|
B|-------------------------------------|
G|----------66666666-4444444444444444--|
D|-44444444-66666666-4444444444444444--| 
A|-44444444-44444444 2222222222222222--|
E|-22222222----------------------------|
I hope you cry...
e|-----------------------------|
B|-----------------------------|
G|----------66666666-4X--------|
D|-44444444-66666666-4X--------| 
A|-44444444-44444444 2X--------|
E|-22222222--------------------|
I hope you feel...
 
*Chords implied by bass
   E       B       F#
e|------------------------------------|
B|------------------------------------|
G|---4433----4433----4433----4433-----|
D|-22----44------44------44------44---|  
A|---------22-------------------------|
E|-----------------22------22---------|

e|------------------------------------|
B|------------------------------------|
G|---4433----4433----4433-------------|
D|-22----44------44------4444-X44-X2--|  
A|---------22--------------44-X44-X2--| 
E|-----------------22------22-X22-X0--|

e|---------------------|
B|---------------------|
G|-----4-4-------------|
D|-2-2-4-4-4-4---------|  x4
A|-2-2-2-2-4-4---------|
E|-0-0-----2-2---------|
It comes as no surprise...
 
Outro
*Chords implied by bass
   E       B       F#
e|------------------------------------|
B|------------------------------------|
G|---4433----4433----4433----4433-----|
D|-22----44------44------44------44---| x2
A|---------22-------------------------|
E|-----------------22------22---------|
Let ring:
e|----------------------|
B|----------------------|
G|----------4--3~-------|
D|-2~-------------4~----|  
A|-2~-------------------|
E|-0~----(0)------------|
Suggest correction
Give kudos to tab author, rate the tab!
1 2 3 4 5
comments
print report bad tab
2 comments total.
0 reply
EggNoggy 337 wrote on July 20 2006, 11:13 pm

god i love this song!!!

0 reply
JesusOfSbrbia 240 wrote on August 4 2006, 09:16 pm

this is my freaking tab, with some notes changed. =/

guest
You may want to rate the tab now too:
select rating
Please do not post tabs as comments. Select "correction" instead!