Oops, an error
Loading. Please wait.

Never Scared Bass

411 views 1 this week
no commentswrite comment
1 2 3 4 5
3 more votes to show rating
add to favorites
launch autoscroll
font size
0
reset
guitar tuner
×
Best way to learn
"Never Scared"
Autoscroll
slow
fast
+/-
esc
set tempo
stop
Author
Difficulty
novice
heres the main riff for most the song

G|---------------------------------|
D|---------------------------------|
A|-----2--------2----2-------------|
E|-0-----0----0--------0-----------|

When he goes,"Listen up, its whole wheat bread 2006..." 
the bass does this

G|---------------------------------|
D|---------------------------------|
A|---2--------2--------2-----------|
E|-0---0----0---0----0---0---------|
Suggest correction
Give kudos to tab author, rate the tab!
1 2 3 4 5
comments
print report bad tab
guest
You may want to rate the tab now too:
select rating
Wanna post a correction for this tab? Suggest correction