Oops, an error
Loading. Please wait.

Police Song Bass Tab

version 1
version 1

Whole song

Interactive

424 views 1 this week
no commentswrite comment
1 2 3 4 5
please rate
add to favorites
launch autoscroll
font size
0
reset
guitar tuner
Tab Pro tools
  • play this tab
  • loop segment
  • change instrument
  • show fretboard
  • metronome
Autoscroll
slow
fast
+/-
esc
set tempo
stop
I'm not sure if the verse is right, but these are the root notes:

Verse
G|-----------------------------|
D|-----------------------------|
A|-----------------------------| x4
E|-55555555-77777777-44444444--|

Pre-Chorus
G|---7~------|---7~----------|
D|-----------|-----6---------|
A|55----55---|55-------------| (first part x3, second part on the 4th)
E|---------5~|------77777777-|

Chorus
G|--------------------------------|
D|--------------------------------|
A|-------------------5-4-2-0-2-00-| (x2)
E|----55555p4h5555----------------|

Bridge
G|-------------------------------------------------|
D|-------------------------------------------------|
A|----------------7777777777777777-----------------| (x2)
E|5555555555555555----------------5555555555555555-|

There's little flourishes at the pre-chorus and bridge, if you wanna improvise a bit.
comments
We did not receive enough feedback on this tab! Please rate:
print report bad tab
1 2 3 4 5
I want to post or [tab]
guest
You may want to rate the tab now too:
select rating
Please do not post tabs as comments. Select "correction" instead!