Oops, an error
Loading. Please wait.

Scar Your Lungs Tab

478 views 1 this week
no commentswrite comment
1 2 3 4 5
3 more votes to show rating
add to favorites
launch autoscroll
font size
0
reset
how to read this tab
guitar tuner
Autoscroll
slow
fast
+/-
esc
set tempo
stop
Help us to improve Ultimate-Guitar.com Take our survey!
×
Author
Difficulty
intermediate
Scar Your Lungs
Whole Wheat Bread
Minority Rules
Transcribed by Vennie



I listened to the song and figured out the basic chords
and they could be slightly off from the real thing.
If you have any ways to make it sound better, leave
a comment.


The chords are there you just need to figure out the strumming for yourself.
Lots of palm mutes.


Intro


e|-------------------------------------|
B|-------------------------------------|
G|--7---5---9---10---------------------|
D|--7---5---x---x----8-----------------|
A|--5---3---7---8----8-----------------|
E|-------------------6-----------------|



Verse


e|-------------------------------------|
B|-------------------------------------|
G|----------7---5---9---10-------------| 
D|--3---8---7---5---x---x----8----x2---|
A|--3---8---5---3---7---8----8---------|
E|--1---6--------------------6---------|


Chorus


e|-----------------------------------------------------------------|
B|-------E---------------------------------------------------------|
G|----K-D-----------------------8-9-10---------------------12-10---|
D|---C-I------7-7---7-7---7-7---x-x-x----8-8---8-8---8-8----x-x----|
A|--I-L-------7-7-7-7-7-7-7-7-7-6-7-8----8-8---8-8---8-8---10-8----|
E|-P-S--------5-5-0-5-5-0-5-5-0----------6-6-0-6-6-0-6-6-0---------|

e|-------------------------------------------------|
B|-------------------------------------------------|
G|--------------------8-9--10-----------------------|
D|--7-7---7-7---7-7---x-x---x----8-8---8-8---8------|
A|--7-7-7-7-7-7-7-7-7-6-7---8----8-8---8-8---8------|
E|--5-5-0-5-5-0-5-5-0------------6-6-0-6-6-0-6------|


e|-----------------------------------------------------------------------|
B|-----------------------------------------------------------------------|
G|--10-10-10------------7-7-7--5-5-5----------------5-5-5-5--------------|
D|--10-10-10--10-10-10--7-7-7--5-5-5--8-7----8-7----5-5-5-5-------x2-----|
A|--8--8--8---10-10-10--5-5-5--3-3-3--8-7-7--8-7-7--3-3-3-3--------------|
E|------------8--8--8-----------------6-5-0--6-5-0-----------------------|



e|-----------------------------------|
B|-----------------------------------|
G|----------7---5---8---10-----------| 
D|--3---8---7---5---8---10---8-------|
A|--3---8---5---3---7---8----8-------|
E|--1---6--------------------6-------|


Verse 2


e|------------------------------------------------|
B|---------------------------------------------E--|
G|-------------7---5---8---10---------------K-D---| 
D|--3------8---7---5---8---10---8----x2----C-I----|
A|--3------8---5---3---7---8----8---------I-L-----|
E|--1------6--------------------6--------P-S------|


Chorus


e|---------------------------------------------------------|
B|---------------------------------------------------------|
G|--------------------8-9-10----------------------12-10----|
D|--7-7---7-7---7-7---x-x--x----8-8---8-8---8-8----x-x----|
A|--7-7-7-7-7-7-7-7-7-6-7--8----8-8---8-8---8-8---10-8-----|
E|--5-5-0-5-5-0-5-5-0-----------6-6-0-6-6-0-6-6-0----------|

e|-------------------------------------------------|
B|-------------------------------------------------|
G|--------------------8-9-10-----------------------|
D|--7-7---7-7---7-7---x-x--x----8-8---8-8---8------|
A|--7-7-7-7-7-7-7-7-7-6-7--8----8-8---8-8---8------|
E|--5-5-0-5-5-0-5-5-0-----------6-6-0-6-6-0-6------|


e|---------------------------------------------------------------------|
B|---------------------------------------------------------------------|
G|--10-10-10------------7-7-7--5-5-5----------------5-5-5-5------------|
D|--10-10-10--10-10-10--7-7-7--5-5-5--8-7----8-7----5-5-5-5-------x2---|
A|--8--8--8---10-10-10--5-5-5--3-3-3--8-7-7--8-7-7--3-3-3-3------------|
E|------------8--8--8-----------------6-5-0--6-5-0---------------------|


Bridge


e|--------------------------------|
B|--------------------------------|
G|----------7---5-----------------|
D|--3---8---7---5---8-------------|
A|--3---8---5---3---8-------------|
E|--1---6-----------6-------------|


This part has a guitar solo type thing 
and I can't figure it out. So you're
on your own on that.


e|---------------------------------------|
B|---------------------------------------|
G|------------------7------5-------------|
D|--3-------8-------7-x5---5-x5---8------|
A|--3-x12---8-x12---5------3------8-x6---|
E|--1-------6---------------------6------|


Drum Solo



Chorus


e|---------------------------------------------------------|
B|---------------------------------------------------------|
G|--------------------8-9-10----------------------12-10----|
D|--7-7---7-7---7-7---x-x--x----8-8---8-8---8-8----x-x----|
A|--7-7-7-7-7-7-7-7-7-6-7--8----8-8---8-8---8-8---10-8-----|
E|--5-5-0-5-5-0-5-5-0-----------6-6-0-6-6-0-6-6-0----------|

e|-------------------------------------------------|
B|-------------------------------------------------|
G|--------------------8-9-10-----------------------|
D|--7-7---7-7---7-7---x-x--x----8-8---8-8---8------|
A|--7-7-7-7-7-7-7-7-7-6-7--8----8-8---8-8---8------|
E|--5-5-0-5-5-0-5-5-0-----------6-6-0-6-6-0-6------|



~End
Suggest correction
Give kudos to tab author, rate the tab!
1 2 3 4 5
comments
print report bad tab
guest
You may want to rate the tab now too:
select rating
Wanna post a correction for this tab? Suggest correction