Oops, an error
Loading. Please wait.

The Vowels Part 2 bass

by Why?
5,366 views 3 this week
4 commentsread comments
1 2 3 4 5
2 more votes to show rating
add to favorites
×
Save as Personal and add changes to this tab that will be seen only by you. Learn more ›
×
You can save this tab as Personal to edit and correct it or add notes. All changes will be seen only by you. Learn more »
launch autoscroll
font size
0
reset
guitar tuner
edit
Autoscroll
slow
fast
+/-
esc
set tempo
stop
Author
Song: The Vowels, Pt. 2
Artist: Why?
Album: Alopecia
 

Tuning: Standard

Repeated throughout whole song
                                            Variation:
G|-----------------------------------------|-------------------------------|
D|-----------------------------------------|-------------------------------|
A|--------------------6-6-6-6---3-3-3-3----|---------6~--3~----------------|
E|-1-1-1-1---4-4-4-4-----------------------|-1~--4~------------------------|

That's it. Very easy song. Enjoy..
Suggest correction
Creating personal tab
Creating personal tab
You can edit any tab online and save it as your Personal.

You can edit, replace or remove any tab part or add personal notes – all changes will be seen only by you.

Personal tabs can be accessed anytime from any device, even offline.
Learn more »
Give kudos to tab author, rate the tab!
1 2 3 4 5
comments
print report bad tab
4 comments total. Showing first comments.
-1 reply
becparks 10 Jan 23, 2010 06:07 AM

i honestly think its more like

G|-----------------------------------------|
D|-----------------------------------------|
A|--------------------6-6-6-6---8-8-8-8----|
E|-1-1-1-1---4-4-4-4-----------------------|

0 reply
SlappinZ 60 Mar 03, 2010 05:48 PM

listen to it carefully. also, check out some live videos, that helped making the tab accurate
rock on

0 reply
FrailFingers 10 Sep 19, 2011 07:38 AM

I honestly don't see how you guys messed up the tab this much... it's SO easy. i didn't even listen to the song... it's 1, 4, 11, 8. and then the intermediate part is 4, 8, 1 (sounds like it).

but seriously your tabs are extremely wrong.

guest
You may want to rate the tab now too:
select rating
Wanna post a correction for this tab? Suggest correction