Oops, an error
Loading. Please wait.

Airplane bass

version 1
version 1

Whole song

134 views 1 this week
1 commentread comment
1 2 3 4 5
3 more votes to show rating
add to favorites
×
Save as Personal and add changes to this tab that will be seen only by you. Learn more ›
×
You can save this tab as Personal to edit and correct it or add notes. All changes will be seen only by you. Learn more »
launch autoscroll
font size
0
reset
guitar tuner
edit
Autoscroll
slow
fast
+/-
esc
set tempo
stop
Author
Difficulty
Unregistered
NOTICE: I wrote this tab with help from my bass instructor because I needed to learn it 
for my band.
It's based on the chord charts I found on UltmateGuitar. It's my second tab, so it's 
probably not perfect.
Feel free to post any corrections in the comments for others to see.

Verse/Intro:

--------------------------|
--------------------------|
--------1--3--------1--3--|
--1--3--------1--3--------|

Chorus:

-----------------------------|
-----------------------------|
-----3-----3--------3-----3--|
--1-----3-----1--1-----3-----|

Chorus 2:

-----------|
-----------|
-----------|
--1--3--3--|

Solo:

--------------------------------------|
-----1--1-----------------1--1--------|
--1--------1-----------1--------1-----|
--------------4--4--1--------------4--|

"I've got a feeling that I should be leaving" (Repeat this a few times):

-------------|
-------------|
----3--------|
--3----3--1--|
Suggest correction
Creating personal tab
Creating personal tab
You can edit any tab online and save it as your Personal.

You can edit, replace or remove any tab part or add personal notes – all changes will be seen only by you.

Personal tabs can be accessed anytime from any device, even offline.
Learn more »
Give kudos to tab author, rate the tab!
1 2 3 4 5
comments
print report bad tab
1 comment total.
0 reply
_space_ 56 Jun 18, 2015 02:31 PM

I tabbed this a while ago and realized it was incorrect. I've corrected it and uploaded a new version though!

guest
Wanna post a correction for this tab? Suggest correction