Oops, an error
Loading. Please wait.

Airplane Tab

version 1
version 1

Intro

Whole song

10,362 views 9 this week
2 commentsread comments
1 2 3 4 5
x 7
add to favorites
launch autoscroll
font size
0
reset
how to read this tab
guitar tuner
×
Best way to learn
"Airplane"
Autoscroll
slow
fast
+/-
esc
set tempo
stop
Author
http://www.widespreadpanic.com/
----------------------------------------------------------------------------
                             AIRPLANE - Widespread Panic
----------------------------------------------------------------------------
Tabbed by: jett

Tuning: standard

i think its right, it sounds good on accoustic

e|--------------------------------------------------------------------------
B|--------------------------------------------------------------------------
G|----------0-------------0----------0-------0------------------------------
D|----3----------------------3------------3-------2-------------------------
A|------0-----------0--1---------3------------------------------------------
E|--1------3------3---------------------------------------------------------
Suggest correction
comments
print report bad tab
2 comments total.
0 reply
thensonbr 10 Mar 19, 2014 03:03 PM

e|--------------------------------------------------------------------------
B|--------------------------------------------------------------------------
G|----------0-------------0----------0-------2------------------------------
D|----3----------------------3------------3-------3-------------------------
A|------0-----------0--1---------3------------------------------------------
E|--1------3------3---------------------------------------------------------

guest
You may want to rate the tab now too:
select rating
Wanna post a correction for this tab? Suggest correction