Oops, an error
Loading. Please wait.

Fishwater Bass Tab

445 views 1 this week
no commentswrite comment
1 2 3 4 5
3 more votes to show rating
add to favorites
launch autoscroll
font size
0
reset
guitar tuner
Autoscroll
slow
fast
+/-
esc
set tempo
stop
Help us to improve Ultimate-Guitar.com Take our survey!
×
Verse: (slap and pull)
G|-----------5---|------------9---7|-----------5--|-------------------|
D|---------------|-----------------|--------------|-------------------|
A|-------0-3---3-|--------0h7--0h5-|-------0-3--3-|-------------------|
E|-5-3-5---------|-5-3-5-----------|-5-3-5--------|-5-3-5--0-0-1-2-3--|

Chorus:
G|-5----5------5-|-----------5-----|--------------|-------------------|
D|-5-------------|-----------------|55--p4--4p33--|-------------------|
A|-3--3-----0-3--|-------0-3---3---|--------------|-5-p4-p3-----------|
E|--------------/|-5-3-5-----------|--------------|-------------------|
  "More..."                           (Play according to tempo)

Jam:
A/G/A (walk to next measure), D/C/D, and back

End With:
G|--------7-8-9|
D|--------7-8-9|
A|-----3--5-6-7|
E|-5-3---------|

Out of Jam-Drum Solo:
G|---------|-------|---------------~5h7--|---------------------------|
D|---------|7-5-7-r|~7-7~5h7~5h7~5h7----7|7-7~5h7~5h7~5h7-7-6-5------|
A|---------|-------|---------------------|---------------------7-6-5-|
E|-3-5-3-r-|-------|---------------------|---------------------------|
           Or    Move to
End:
G|--------------|
D|--------------|
A|--------7-6-5-|
E|-5-3-5-------/|

Suggest correction
Give kudos to tab author, rate the tab!
1 2 3 4 5
comments
print report bad tab
guest
You may want to rate the tab now too:
select rating
Wanna post a correction for this tab? Suggest correction