Oops, an error
Loading. Please wait.

Holden Oversoul Chords

1,411 views 1 this week
no commentswrite comment
1 2 3 4 5
3 more votes to show rating
add to favorites
launch autoscroll
font size
0
reset
transpose
0
reset
simplify chords
display chords
guitar tuner
Autoscroll
slow
fast
+/-
esc
set tempo
stop
Help us to improve Ultimate-Guitar.com Take our survey!
×
Author
Tabbers playing skills
intermediate
  Intro theme  C                    Am
|------------------------|------------------------------|
|-1^3-1-1-----1--1-------|-1^3-1---1---1-1--------------|
|0-----3-0-3--0--0--'/'5x|0-----3-0-2--2-2--------------|
|2-----------------------|2-----------------------------|
|------------3-----------|------------0-----------------|
|---------------3--------|--------------0---------------|

    C
The screen door to the farmer's porch
To the back porch, to the backlands
Am
   It's never left closed
  C
A new air pushed a full wind
That brought worlds on through
Am
   That only he could know
       C
As the last of November passed
With his new life, with his new wife
Am
   She said she was feeling a little cold
    C
The ghost of a clown just danced in and
Did a few tricks and danced out again
Am
   Warming a farmer's soul

  Am G Am C
            x3         x2            X3
|-------------|---3-5-5\-|-3-/5-/8-8-8\-|---0-----|--------|
|-----1--1^3-1|3/5-------|--------------|--/5--/3-|-Intro--|
|--0^2-2------|----------|--------------|---------|-Theme--|
|-------------|----------|--------------|---------|--------|
|-------------|----------|--------------|---------|--------|
|-------------|----------|--------------|---------|--------|

C
Summer was all there was
We were working, breathing heat
Am
   Terror rising out of control
             C
Through that door came a breeze
Wrapped on through our heads and around our spines
Am
   Cooling off the burning floor

    D                          C
The morning's breaking woke us long enough
                      G
We were sure we could see
                  Am
The whole of some older birds
G                           Am
Riding to the ground on the falling leaves
G                            Am
Riding to the ground on some falling leaves
Am
One last time
One last time
   C/G
To feed
Return to theme 2

Suggest correction
Give kudos to tab author, rate the tab!
1 2 3 4 5
comments
print report bad tab
guest
You may want to rate the tab now too:
select rating
Wanna post a correction for this tab? Suggest correction